  0
SECTION
  2
HEADER
  9
$ACADVER
  1
AC1032
  9
$ACADMAINTVER
 90
      197
  9
$DWGCODEPAGE
  3
ANSI_1252
  9
$LASTSAVEDBY
  1
robertospina
  9
$REQUIREDVERSIONS
160
                 0
  9
$INSBASE
 10
0.0
 20
0.0
 30
0.0
  9
$EXTMIN
 10
1503540.247793433
 20
4346120.123999997
 30
0.0
  9
$EXTMAX
 10
1504050.389999997
 20
4346660.359999997
 30
0.0
  9
$LIMMIN
 10
1483694.321944622
 20
4324880.992644621
  9
$LIMMAX
 10
1524939.293855377
 20
4366125.964555378
  9
$ORTHOMODE
 70
     0
  9
$REGENMODE
 70
     1
  9
$FILLMODE
 70
     1
  9
$QTEXTMODE
 70
     0
  9
$MIRRTEXT
 70
     1
  9
$LTSCALE
 40
1.0
  9
$ATTMODE
 70
     1
  9
$TEXTSIZE
 40
0.2
  9
$TRACEWID
 40
0.05
  9
$TEXTSTYLE
  7
scrittestrade
  9
$CLAYER
  8
0
  9
$CELTYPE
  6
Continuous
  9
$CECOLOR
 62
   256
  9
$CELTSCALE
 40
1.0
  9
$DISPSILH
 70
     0
  9
$DIMSCALE
 40
1.0
  9
$DIMASZ
 40
0.18
  9
$DIMEXO
 40
0.0625
  9
$DIMDLI
 40
0.38
  9
$DIMRND
 40
0.0
  9
$DIMDLE
 40
0.0
  9
$DIMEXE
 40
0.18
  9
$DIMTP
 40
0.0
  9
$DIMTM
 40
0.0
  9
$DIMTXT
 40
0.18
  9
$DIMCEN
 40
0.09
  9
$DIMTSZ
 40
0.0
  9
$DIMTOL
 70
     0
  9
$DIMLIM
 70
     0
  9
$DIMTIH
 70
     1
  9
$DIMTOH
 70
     1
  9
$DIMSE1
 70
     0
  9
$DIMSE2
 70
     0
  9
$DIMTAD
 70
     0
  9
$DIMZIN
 70
     0
  9
$DIMBLK
  1

  9
$DIMASO
 70
     1
  9
$DIMSHO
 70
     1
  9
$DIMPOST
  1

  9
$DIMAPOST
  1

  9
$DIMALT
 70
     0
  9
$DIMALTD
 70
     2
  9
$DIMALTF
 40
25.4
  9
$DIMLFAC
 40
1.0
  9
$DIMTOFL
 70
     0
  9
$DIMTVP
 40
0.0
  9
$DIMTIX
 70
     0
  9
$DIMSOXD
 70
     0
  9
$DIMSAH
 70
     0
  9
$DIMBLK1
  1

  9
$DIMBLK2
  1

  9
$DIMSTYLE
  2
Standard
  9
$DIMCLRD
 70
     0
  9
$DIMCLRE
 70
     0
  9
$DIMCLRT
 70
     0
  9
$DIMTFAC
 40
1.0
  9
$DIMGAP
 40
0.09
  9
$DIMJUST
 70
     0
  9
$DIMSD1
 70
     0
  9
$DIMSD2
 70
     0
  9
$DIMTOLJ
 70
     1
  9
$DIMTZIN
 70
     0
  9
$DIMALTZ
 70
     0
  9
$DIMALTTZ
 70
     0
  9
$DIMUPT
 70
     0
  9
$DIMDEC
 70
     4
  9
$DIMTDEC
 70
     4
  9
$DIMALTU
 70
     2
  9
$DIMALTTD
 70
     2
  9
$DIMTXSTY
  7
Standard
  9
$DIMAUNIT
 70
     0
  9
$DIMADEC
 70
     0
  9
$DIMALTRND
 40
0.0
  9
$DIMAZIN
 70
     0
  9
$DIMDSEP
 70
    46
  9
$DIMATFIT
 70
     3
  9
$DIMFRAC
 70
     0
  9
$DIMLDRBLK
  1

  9
$DIMLUNIT
 70
     2
  9
$DIMLWD
 70
    -2
  9
$DIMLWE
 70
    -2
  9
$DIMTMOVE
 70
     0
  9
$DIMFXL
 40
1.0
  9
$DIMFXLON
 70
     0
  9
$DIMJOGANG
 40
0.7853981633974483
  9
$DIMTFILL
 70
     0
  9
$DIMTFILLCLR
 70
     0
  9
$DIMARCSYM
 70
     0
  9
$DIMLTYPE
  6

  9
$DIMLTEX1
  6

  9
$DIMLTEX2
  6

  9
$DIMTXTDIRECTION
 70
     0
  9
$LUNITS
 70
     2
  9
$LUPREC
 70
     4
  9
$SKETCHINC
 40
0.1
  9
$FILLETRAD
 40
0.5
  9
$AUNITS
 70
     0
  9
$AUPREC
 70
     2
  9
$MENU
  1
.
  9
$ELEVATION
 40
0.0
  9
$PELEVATION
 40
0.0
  9
$THICKNESS
 40
0.0
  9
$LIMCHECK
 70
     0
  9
$CHAMFERA
 40
0.5
  9
$CHAMFERB
 40
0.5
  9
$CHAMFERC
 40
1.0
  9
$CHAMFERD
 40
0.0
  9
$SKPOLY
 70
     0
  9
$TDCREATE
 40
2451789.620798611
  9
$TDUCREATE
 40
2451789.537468704
  9
$TDUPDATE
 40
2459801.581724537
  9
$TDUUPDATE
 40
2459801.498391204
  9
$TDINDWG
 40
0.7071686690
  9
$TDUSRTIMER
 40
0.7071684954
  9
$USRTIMER
 70
     1
  9
$ANGBASE
 50
0.0
  9
$ANGDIR
 70
     0
  9
$PDMODE
 70
     0
  9
$PDSIZE
 40
0.0
  9
$PLINEWID
 40
0.0
  9
$SPLFRAME
 70
     0
  9
$SPLINETYPE
 70
     6
  9
$SPLINESEGS
 70
     8
  9
$HANDSEED
  5
25D
  9
$SURFTAB1
 70
     6
  9
$SURFTAB2
 70
     6
  9
$SURFTYPE
 70
     6
  9
$SURFU
 70
     6
  9
$SURFV
 70
     6
  9
$UCSBASE
  2

  9
$UCSNAME
  2

  9
$UCSORG
 10
0.0
 20
0.0
 30
0.0
  9
$UCSXDIR
 10
1.0
 20
0.0
 30
0.0
  9
$UCSYDIR
 10
0.0
 20
1.0
 30
0.0
  9
$UCSORTHOREF
  2

  9
$UCSORTHOVIEW
 70
     0
  9
$UCSORGTOP
 10
0.0
 20
0.0
 30
0.0
  9
$UCSORGBOTTOM
 10
0.0
 20
0.0
 30
0.0
  9
$UCSORGLEFT
 10
0.0
 20
0.0
 30
0.0
  9
$UCSORGRIGHT
 10
0.0
 20
0.0
 30
0.0
  9
$UCSORGFRONT
 10
0.0
 20
0.0
 30
0.0
  9
$UCSORGBACK
 10
0.0
 20
0.0
 30
0.0
  9
$PUCSBASE
  2

  9
$PUCSNAME
  2

  9
$PUCSORG
 10
0.0
 20
0.0
 30
0.0
  9
$PUCSXDIR
 10
1.0
 20
0.0
 30
0.0
  9
$PUCSYDIR
 10
0.0
 20
1.0
 30
0.0
  9
$PUCSORTHOREF
  2

  9
$PUCSORTHOVIEW
 70
     0
  9
$PUCSORGTOP
 10
0.0
 20
0.0
 30
0.0
  9
$PUCSORGBOTTOM
 10
0.0
 20
0.0
 30
0.0
  9
$PUCSORGLEFT
 10
0.0
 20
0.0
 30
0.0
  9
$PUCSORGRIGHT
 10
0.0
 20
0.0
 30
0.0
  9
$PUCSORGFRONT
 10
0.0
 20
0.0
 30
0.0
  9
$PUCSORGBACK
 10
0.0
 20
0.0
 30
0.0
  9
$USERI1
 70
     0
  9
$USERI2
 70
     0
  9
$USERI3
 70
     0
  9
$USERI4
 70
     0
  9
$USERI5
 70
     0
  9
$USERR1
 40
0.0
  9
$USERR2
 40
0.0
  9
$USERR3
 40
0.0
  9
$USERR4
 40
0.0
  9
$USERR5
 40
0.0
  9
$WORLDVIEW
 70
     1
  9
$SHADEDGE
 70
     3
  9
$SHADEDIF
 70
    70
  9
$TILEMODE
 70
     1
  9
$MAXACTVP
 70
    64
  9
$PINSBASE
 10
0.0
 20
0.0
 30
0.0
  9
$PLIMCHECK
 70
     0
  9
$PEXTMIN
 10
1.000000000000000E+20
 20
1.000000000000000E+20
 30
1.000000000000000E+20
  9
$PEXTMAX
 10
-1.000000000000000E+20
 20
-1.000000000000000E+20
 30
-1.000000000000000E+20
  9
$PLIMMIN
 10
0.0
 20
0.0
  9
$PLIMMAX
 10
12.0
 20
9.0
  9
$UNITMODE
 70
     0
  9
$VISRETAIN
 70
     1
  9
$PLINEGEN
 70
     0
  9
$PSLTSCALE
 70
     0
  9
$TREEDEPTH
 70
  3020
  9
$CMLSTYLE
  2
Standard
  9
$CMLJUST
 70
     0
  9
$CMLSCALE
 40
1.0
  9
$PROXYGRAPHICS
 70
     1
  9
$MEASUREMENT
 70
     0
  9
$CELWEIGHT
370
    -1
  9
$ENDCAPS
280
     0
  9
$JOINSTYLE
280
     0
  9
$LWDISPLAY
290
     0
  9
$INSUNITS
 70
     6
  9
$HYPERLINKBASE
  1

  9
$STYLESHEET
  1

  9
$XEDIT
290
     1
  9
$CEPSNTYPE
380
     0
  9
$PSTYLEMODE
290
     1
  9
$FINGERPRINTGUID
  2
{DAC1829B-AB4A-414F-ABF9-71AC759968F5}
  9
$VERSIONGUID
  2
{E9069BD2-421A-4B52-A6F0-5C8EE005BAA5}
  9
$EXTNAMES
290
     1
  9
$PSVPSCALE
 40
0.0
  9
$OLESTARTUP
290
     0
  9
$SORTENTS
280
   127
  9
$INDEXCTL
280
     0
  9
$HIDETEXT
280
     1
  9
$XCLIPFRAME
280
     0
  9
$HALOGAP
280
     0
  9
$OBSCOLOR
 70
   257
  9
$OBSLTYPE
280
     0
  9
$INTERSECTIONDISPLAY
280
     0
  9
$INTERSECTIONCOLOR
 70
   257
  9
$DIMASSOC
280
     2
  9
$PROJECTNAME
  1

  9
$CAMERADISPLAY
290
     0
  9
$LENSLENGTH
 40
50.0
  9
$CAMERAHEIGHT
 40
0.0
  9
$STEPSPERSEC
 40
2.0
  9
$STEPSIZE
 40
6.0
  9
$3DDWFPREC
 40
2.0
  9
$PSOLWIDTH
 40
0.25
  9
$PSOLHEIGHT
 40
4.0
  9
$LOFTANG1
 40
1.570796326794896
  9
$LOFTANG2
 40
1.570796326794896
  9
$LOFTMAG1
 40
0.0
  9
$LOFTMAG2
 40
0.0
  9
$LOFTPARAM
 70
     7
  9
$LOFTNORMALS
280
     1
  9
$LATITUDE
 40
37.795
  9
$LONGITUDE
 40
-122.394
  9
$NORTHDIRECTION
 40
0.0
  9
$TIMEZONE
 70
 -8000
  9
$LIGHTGLYPHDISPLAY
280
     1
  9
$TILEMODELIGHTSYNCH
280
     1
  9
$CMATERIAL
347
33
  9
$SOLIDHIST
280
     0
  9
$SHOWHIST
280
     1
  9
$DWFFRAME
280
     2
  9
$DGNFRAME
280
     0
  9
$REALWORLDSCALE
290
     1
  9
$INTERFERECOLOR
 62
     1
  9
$INTERFEREOBJVS
345
55
  9
$INTERFEREVPVS
346
56
  9
$CSHADOW
280
     0
  9
$SHADOWPLANELOCATION
 40
0.0
  0
ENDSEC
  0
SECTION
  2
CLASSES
  0
CLASS
  1
ACDBDICTIONARYWDFLT
  2
AcDbDictionaryWithDefault
  3
ObjectDBX Classes
 90
        0
 91
        1
280
     0
281
     0
  0
CLASS
  1
IMAGE
  2
AcDbRasterImage
  3
ISM
 90
     2175
 91
        0
280
     0
281
     1
  0
CLASS
  1
IMAGEDEF
  2
AcDbRasterImageDef
  3
ISM
 90
        0
 91
        0
280
     0
281
     0
  0
CLASS
  1
IMAGEDEF_REACTOR
  2
AcDbRasterImageDefReactor
  3
ISM
 90
        1
 91
        0
280
     0
281
     0
  0
CLASS
  1
RASTERVARIABLES
  2
AcDbRasterVariables
  3
ISM
 90
        0
 91
        0
280
     0
281
     0
  0
CLASS
  1
MATERIAL
  2
AcDbMaterial
  3
ObjectDBX Classes
 90
     1153
 91
        3
280
     0
281
     0
  0
CLASS
  1
SORTENTSTABLE
  2
AcDbSortentsTable
  3
ObjectDBX Classes
 90
        0
 91
        1
280
     0
281
     0
  0
CLASS
  1
DIMASSOC
  2
AcDbDimAssoc
  3
"AcDbDimAssoc|Product Desc:     AcDim ARX App For Dimension|Company:          Autodesk, Inc.|WEB Address:      www.autodesk.com"
 90
        0
 91
        0
280
     0
281
     0
  0
CLASS
  1
VISUALSTYLE
  2
AcDbVisualStyle
  3
ObjectDBX Classes
 90
     4095
 91
       24
280
     0
281
     0
  0
CLASS
  1
TABLESTYLE
  2
AcDbTableStyle
  3
ObjectDBX Classes
 90
     4095
 91
        1
280
     0
281
     0
  0
CLASS
  1
SCALE
  2
AcDbScale
  3
ObjectDBX Classes
 90
     1153
 91
       17
280
     0
281
     0
  0
CLASS
  1
MLEADERSTYLE
  2
AcDbMLeaderStyle
  3
ACDB_MLEADERSTYLE_CLASS
 90
     4095
 91
        1
280
     0
281
     0
  0
CLASS
  1
ACDBSECTIONVIEWSTYLE
  2
AcDbSectionViewStyle
  3
ObjectDBX Classes
 90
     1025
 91
        1
280
     0
281
     0
  0
CLASS
  1
ACDBDETAILVIEWSTYLE
  2
AcDbDetailViewStyle
  3
ObjectDBX Classes
 90
     1025
 91
        1
280
     0
281
     0
  0
CLASS
  1
DMMAPMANAGER
  2
AcMapDMMapManager
  3
AcMapDisplayManagement
 90
     1024
 91
        0
280
     1
281
     0
  0
CLASS
  1
DMSTYLELIBRARY
  2
AcMapDMStyleLibrary
  3
AcMapDisplayManagement
 90
     1024
 91
        0
280
     1
281
     0
  0
CLASS
  1
DMSTYLECATEGORY
  2
AcMapDMStyleCategory
  3
AcMapDisplayManagement
 90
     1024
 91
        0
280
     1
281
     0
  0
CLASS
  1
DATATABLE
  2
AcDbDataTable
  3
ObjectDBX Classes
 90
        0
 91
        0
280
     0
281
     0
  0
CLASS
  1
MAPRESOURCEMANAGEROBJECT
  2
AcMapResourceManager
  3
AcMapSharedComponents
 90
     1024
 91
        0
280
     1
281
     0
  0
CLASS
  1
MAPGWSUNDOOBJECT
  2
AcMapGWSUndoRecorder
  3
AcMapFeatureSourceManager
 90
     1025
 91
        0
280
     1
281
     0
  0
CLASS
  1
EXACXREFPANELOBJECT
  2
ExAcXREFPanelObject
  3
EXAC_ESW
 90
     1025
 91
        0
280
     1
281
     0
  0
CLASS
  1
NPOCOLLECTION
  2
AcDbImpNonPersistentObjectsCollection
  3
ObjectDBX Classes
 90
     1153
 91
        0
280
     0
281
     0
  0
CLASS
  1
DMMAP
  2
AcMapDMMap
  3
AcMapDisplayManagement
 90
     1024
 91
        0
280
     1
281
     0
  0
CLASS
  1
DMBASEELEMENT
  2
AcMapDMBaseElement
  3
AcMapDisplayManagement
 90
     1024
 91
        0
280
     1
281
     0
  0
CLASS
  1
DMDEFAULTSTYLE
  2
AcMapDMDefaultStyle
  3
AcMapDisplayManagement
 90
     1024
 91
        0
280
     1
281
     0
  0
CLASS
  1
DMSTYLEREFERENCE
  2
AcMapDMStyleReference
  3
AcMapDisplayManagement
 90
     1024
 91
        0
280
     1
281
     0
  0
CLASS
  1
DMSURROGATESTYLESETS
  2
AcMapDMSurrogateStyleSets
  3
AcMapDisplayManagement
 90
     1153
 91
        0
280
     1
281
     0
  0
CLASS
  1
DMSTYLIZEDENTITIESTABLE
  2
AcMapDMStylizedEntitiesTable
  3
AcMapDisplayManagement
 90
     1024
 91
        0
280
     1
281
     0
  0
CLASS
  1
CELLSTYLEMAP
  2
AcDbCellStyleMap
  3
ObjectDBX Classes
 90
     1152
 91
        1
280
     0
281
     0
  0
CLASS
  1
DICTIONARYVAR
  2
AcDbDictionaryVar
  3
ObjectDBX Classes
 90
        0
 91
        9
280
     0
281
     0
  0
CLASS
  1
EXACTERMXREFMAP
  2
ExAcTermXrefMap
  3
EXAC_SERVICE
 90
     1025
 91
        0
280
     1
281
     0
  0
CLASS
  1
AEC_VARS_DWG_SETUP
  2
AecDbVarsDwgSetup
  3
AecBase80|Product Desc: Autodesk Architectural Desktop 2007 |Company: Autodesk,Inc. |WEB Address: www.autodesk.com
 90
      129
 91
        0
280
     0
281
     0
  0
CLASS
  1
AEC_NOTIFICATION_TRACKER
  2
AecDbNotificationTracker
  3
AecBase80|Product Desc: Autodesk Architectural Desktop 2007 |Company: Autodesk,Inc. |WEB Address: www.autodesk.com
 90
      129
 91
        0
280
     0
281
     0
  0
CLASS
  1
AEC_DISP_REP_MASS_ELEM_MODEL
  2
AecDbDispRepMassElemModel
  3
AecBaseEx80|Product Desc: Autodesk Architectural Desktop 2007 |Company: Autodesk,Inc. |WEB Address: www.autodesk.com
 90
      129
 91
        0
280
     0
281
     0
  0
CLASS
  1
AEC_DISP_PROPS_MASS_ELEM_MODEL
  2
AecDbDispPropsMassElem
  3
AecBaseEx80|Product Desc: Autodesk Architectural Desktop 2007 |Company: Autodesk,Inc. |WEB Address: www.autodesk.com
 90
      129
 91
        0
280
     0
281
     0
  0
CLASS
  1
AEC_DISP_REP_MASS_ELEM_SCHEM
  2
AecDbDispRepMassElemSchem
  3
AecBaseEx80|Product Desc: Autodesk Architectural Desktop 2007 |Company: Autodesk,Inc. |WEB Address: www.autodesk.com
 90
      129
 91
        0
280
     0
281
     0
  0
CLASS
  1
AEC_DISP_REP_MASS_GROUP_MODEL
  2
AecDbDispRepMassGroupModel
  3
AecBaseEx80|Product Desc: Autodesk Architectural Desktop 2007 |Company: Autodesk,Inc. |WEB Address: www.autodesk.com
 90
      129
 91
        0
280
     0
281
     0
  0
CLASS
  1
AEC_DISP_PROPS_MASS_GROUP
  2
AecDbDispPropsMassGroup
  3
AecBaseEx80|Product Desc: Autodesk Architectural Desktop 2007 |Company: Autodesk,Inc. |WEB Address: www.autodesk.com
 90
      129
 91
        0
280
     0
281
     0
  0
CLASS
  1
AEC_DISP_REP_MASS_GROUP_PLAN
  2
AecDbDispRepMassGroupPlan
  3
AecBaseEx80|Product Desc: Autodesk Architectural Desktop 2007 |Company: Autodesk,Inc. |WEB Address: www.autodesk.com
 90
      129
 91
        0
280
     0
281
     0
  0
CLASS
  1
AEC_DISP_REP_SLICE
  2
AecDbDispRepSlice
  3
AecBase80|Product Desc: Autodesk Architectural Desktop 2007 |Company: Autodesk,Inc. |WEB Address: www.autodesk.com
 90
      129
 91
        0
280
     0
281
     0
  0
CLASS
  1
AEC_DISP_PROPS_SLICE
  2
AecDbDispPropsSlice
  3
AecBase80|Product Desc: Autodesk Architectural Desktop 2007 |Company: Autodesk,Inc. |WEB Address: www.autodesk.com
 90
      129
 91
        0
280
     0
281
     0
  0
CLASS
  1
AEC_DISP_REP_POLYGON_TRUECOLOUR
  2
AecDbDispRepPolygonTrueColour
  3
AecBase80|Product Desc: Autodesk Architectural Desktop 2007 |Company: Autodesk,Inc. |WEB Address: www.autodesk.com
 90
      129
 91
        0
280
     0
281
     0
  0
CLASS
  1
AEC_DISP_PROPS_POLYGON_TRUECOLOUR
  2
AecDbDispPropsPolygonTrueColour
  3
AecBase80|Product Desc: Autodesk Architectural Desktop 2007 |Company: Autodesk,Inc. |WEB Address: www.autodesk.com
 90
      129
 91
        0
280
     0
281
     0
  0
CLASS
  1
AEC_DISP_REP_ANCHOR_EXT_TAG_TO_ENT
  2
AecDbDispRepAnchorExtendedTagToEnt
  3
AecBase80|Product Desc: Autodesk Architectural Desktop 2007 |Company: Autodesk,Inc. |WEB Address: www.autodesk.com
 90
      129
 91
        0
280
     0
281
     0
  0
CLASS
  1
AEC_DISP_PROPS_ENT
  2
AecDbDispPropsEnt
  3
AecBase80|Product Desc: Autodesk Architectural Desktop 2007 |Company: Autodesk,Inc. |WEB Address: www.autodesk.com
 90
      129
 91
        0
280
     0
281
     0
  0
CLASS
  1
AEC_DISP_REP_MVBLOCK_REF
  2
AecDbDispRepMvBlockRef
  3
AecBase80|Product Desc: Autodesk Architectural Desktop 2007 |Company: Autodesk,Inc. |WEB Address: www.autodesk.com
 90
      129
 91
        0
280
     0
281
     0
  0
CLASS
  1
AEC_DISP_REP_POLYGON_MODEL
  2
AecDbDispRepPolygonModel
  3
AecBase80|Product Desc: Autodesk Architectural Desktop 2007 |Company: Autodesk,Inc. |WEB Address: www.autodesk.com
 90
      129
 91
        0
280
     0
281
     0
  0
CLASS
  1
AEC_DISP_PROPS_POLYGON_MODEL
  2
AecDbDispPropsPolygonModel
  3
AecBase80|Product Desc: Autodesk Architectural Desktop 2007 |Company: Autodesk,Inc. |WEB Address: www.autodesk.com
 90
      129
 91
        0
280
     0
281
     0
  0
CLASS
  1
AEC_DISP_REP_CLIP_VOLUME_PLAN
  2
AecDbDispRepClipVolPlan
  3
AecBase80|Product Desc: Autodesk Architectural Desktop 2007 |Company: Autodesk,Inc. |WEB Address: www.autodesk.com
 90
      129
 91
        0
280
     0
281
     0
  0
CLASS
  1
AEC_DISP_PROPS_CLIP_VOLUME
  2
AecDbDispPropsClipVol
  3
AecBase80|Product Desc: Autodesk Architectural Desktop 2007 |Company: Autodesk,Inc. |WEB Address: www.autodesk.com
 90
      129
 91
        0
280
     0
281
     0
  0
CLASS
  1
AEC_DISP_REP_EDITINPLACEPROFILE
  2
AecDbDispRepEditInPlaceProfile
  3
AecBase80|Product Desc: Autodesk Architectural Desktop 2007 |Company: Autodesk,Inc. |WEB Address: www.autodesk.com
 90
      129
 91
        0
280
     0
281
     0
  0
CLASS
  1
AEC_DISP_PROPS_EDITINPLACEPROFILE_MODEL
  2
AecDbDispPropsEditInPlaceProfile
  3
AecBase80|Product Desc: Autodesk Architectural Desktop 2007 |Company: Autodesk,Inc. |WEB Address: www.autodesk.com
 90
      129
 91
        0
280
     0
281
     0
  0
CLASS
  1
AEC_DISP_REP_LAYOUT_GRID3D
  2
AecDbDispRepLayoutGrid3d
  3
AecBase80|Product Desc: Autodesk Architectural Desktop 2007 |Company: Autodesk,Inc. |WEB Address: www.autodesk.com
 90
      129
 91
        0
280
     0
281
     0
  0
CLASS
  1
AEC_DISP_PROPS_LAYOUT_GRID3D
  2
AecDbDispPropsLayoutGrid3d
  3
AecBase80|Product Desc: Autodesk Architectural Desktop 2007 |Company: Autodesk,Inc. |WEB Address: www.autodesk.com
 90
      129
 91
        0
280
     0
281
     0
  0
CLASS
  1
AEC_DISP_REP_MATERIAL
  2
AecDbDispRepMaterial
  3
AecBase80|Product Desc: Autodesk Architectural Desktop 2007 |Company: Autodesk,Inc. |WEB Address: www.autodesk.com
 90
      129
 91
        0
280
     0
281
     0
  0
CLASS
  1
AEC_DISP_PROPS_MATERIAL
  2
AecDbDispPropsMaterial
  3
AecBase80|Product Desc: Autodesk Architectural Desktop 2007 |Company: Autodesk,Inc. |WEB Address: www.autodesk.com
 90
      129
 91
        0
280
     0
281
     0
  0
CLASS
  1
AEC_DISP_REP_CLIP_VOLUME_RESULT
  2
AecDbDispRepClipVolResult
  3
AecBase80|Product Desc: Autodesk Architectural Desktop 2007 |Company: Autodesk,Inc. |WEB Address: www.autodesk.com
 90
      129
 91
        0
280
     0
281
     0
  0
CLASS
  1
AEC_DISP_REP_DISPLAYTHEME
  2
AecDbDispRepDisplayTheme
  3
AecBase80|Product Desc: Autodesk Architectural Desktop 2007 |Company: Autodesk,Inc. |WEB Address: www.autodesk.com
 90
      129
 91
        0
280
     0
281
     0
  0
CLASS
  1
AEC_DISP_PROPS_DISPLAYTHEME
  2
AecDbDispPropsDisplayTheme
  3
AecBase80|Product Desc: Autodesk Architectural Desktop 2007 |Company: Autodesk,Inc. |WEB Address: www.autodesk.com
 90
      129
 91
        0
280
     0
281
     0
  0
CLASS
  1
AEC_DISP_REP_LAYOUT_GRID2D
  2
AecDbDispRepLayoutGrid2d
  3
AecBase80|Product Desc: Autodesk Architectural Desktop 2007 |Company: Autodesk,Inc. |WEB Address: www.autodesk.com
 90
      129
 91
        0
280
     0
281
     0
  0
CLASS
  1
AEC_DISP_PROPS_LAYOUT_GRID2D
  2
AecDbDispPropsLayoutGrid2d
  3
AecBase80|Product Desc: Autodesk Architectural Desktop 2007 |Company: Autodesk,Inc. |WEB Address: www.autodesk.com
 90
      129
 91
        0
280
     0
281
     0
  0
CLASS
  1
AEC_DISP_REP_ENT_REF
  2
AecDbDispRepEntRef
  3
AecBase80|Product Desc: Autodesk Architectural Desktop 2007 |Company: Autodesk,Inc. |WEB Address: www.autodesk.com
 90
      129
 91
        0
280
     0
281
     0
  0
CLASS
  1
AEC_DISP_PROPS_ENT_REF
  2
AecDbDispPropsEntRef
  3
AecBase80|Product Desc: Autodesk Architectural Desktop 2007 |Company: Autodesk,Inc. |WEB Address: www.autodesk.com
 90
      129
 91
        0
280
     0
281
     0
  0
CLASS
  1
AEC_DISP_REP_LAYOUT_CURVE
  2
AecDbDispRepLayoutCurve
  3
AecBase80|Product Desc: Autodesk Architectural Desktop 2007 |Company: Autodesk,Inc. |WEB Address: www.autodesk.com
 90
      129
 91
        0
280
     0
281
     0
  0
CLASS
  1
AEC_DISP_PROPS_LAYOUT_CURVE
  2
AecDbDispPropsLayoutCurve
  3
AecBase80|Product Desc: Autodesk Architectural Desktop 2007 |Company: Autodesk,Inc. |WEB Address: www.autodesk.com
 90
      129
 91
        0
280
     0
281
     0
  0
CLASS
  1
AEC_DISP_REP_CLIP_VOLUME_RESULT_SUBDIV
  2
AecDbDispRepClipVolResSubDiv
  3
AecBase80|Product Desc: Autodesk Architectural Desktop 2007 |Company: Autodesk,Inc. |WEB Address: www.autodesk.com
 90
      129
 91
        0
280
     0
281
     0
  0
CLASS
  1
AEC_DISP_PROPS_CLIP_VOLUME_RESULT
  2
AecDbDispPropsClipVolResSubDiv
  3
AecBase80|Product Desc: Autodesk Architectural Desktop 2007 |Company: Autodesk,Inc. |WEB Address: www.autodesk.com
 90
      129
 91
        0
280
     0
281
     0
  0
CLASS
  1
AEC_DISP_REP_MASKBLOCK_REF
  2
AecDbDispRepMaskBlockRef
  3
AecBase80|Product Desc: Autodesk Architectural Desktop 2007 |Company: Autodesk,Inc. |WEB Address: www.autodesk.com
 90
      129
 91
        0
280
     0
281
     0
  0
CLASS
  1
AEC_DISP_PROPS_MASKBLOCK
  2
AecDbDispPropsMaskBlock
  3
AecBase80|Product Desc: Autodesk Architectural Desktop 2007 |Company: Autodesk,Inc. |WEB Address: www.autodesk.com
 90
      129
 91
        0
280
     0
281
     0
  0
CLASS
  1
AEC_DISP_REP_CLIP_VOLUME_MODEL
  2
AecDbDispRepClipVolModel
  3
AecBase80|Product Desc: Autodesk Architectural Desktop 2007 |Company: Autodesk,Inc. |WEB Address: www.autodesk.com
 90
      129
 91
        0
280
     0
281
     0
  0
CLASS
  1
AEC_DISP_REP_MVBLOCK_REF_MODEL
  2
AecDbDispRepMvBlockRefModel
  3
AecBase80|Product Desc: Autodesk Architectural Desktop 2007 |Company: Autodesk,Inc. |WEB Address: www.autodesk.com
 90
      129
 91
        0
280
     0
281
     0
  0
CLASS
  1
AEC_DISP_REP_2D_SECTION
  2
AecDbDispRep2dSection
  3
AecBase80|Product Desc: Autodesk Architectural Desktop 2007 |Company: Autodesk,Inc. |WEB Address: www.autodesk.com
 90
      129
 91
        0
280
     0
281
     0
  0
CLASS
  1
AEC_DISP_PROPS_2D_SECTION
  2
AecDbDispProps2dSection
  3
AecBase80|Product Desc: Autodesk Architectural Desktop 2007 |Company: Autodesk,Inc. |WEB Address: www.autodesk.com
 90
      129
 91
        0
280
     0
281
     0
  0
CLASS
  1
AEC_DISP_REP_ANCHOR
  2
AecDbDispRepAnchor
  3
AecBase80|Product Desc: Autodesk Architectural Desktop 2007 |Company: Autodesk,Inc. |WEB Address: www.autodesk.com
 90
      129
 91
        0
280
     0
281
     0
  0
CLASS
  1
AEC_DISP_REP_ANCHOR_ENT_TO_NODE
  2
AecDbDispRepAnchorEntToNode
  3
AecBase80|Product Desc: Autodesk Architectural Desktop 2007 |Company: Autodesk,Inc. |WEB Address: www.autodesk.com
 90
      129
 91
        0
280
     0
281
     0
  0
CLASS
  1
AEC_DISP_REP_ANCHOR_TAG_TO_ENT
  2
AecDbDispRepAnchorTagToEnt
  3
AecBase80|Product Desc: Autodesk Architectural Desktop 2007 |Company: Autodesk,Inc. |WEB Address: www.autodesk.com
 90
      129
 91
        0
280
     0
281
     0
  0
CLASS
  1
AEC_DISP_REP_SET
  2
AecDbDispRepSet
  3
AecBase80|Product Desc: Autodesk Architectural Desktop 2007 |Company: Autodesk,Inc. |WEB Address: www.autodesk.com
 90
      129
 91
        0
280
     0
281
     0
  0
CLASS
  1
AEC_DISP_REP_CONFIG
  2
AecDbDispRepConfig
  3
AecBase80|Product Desc: Autodesk Architectural Desktop 2007 |Company: Autodesk,Inc. |WEB Address: www.autodesk.com
 90
      129
 91
        0
280
     0
281
     0
  0
CLASS
  1
SOLID_BACKGROUND
  2
AcDbSolidBackground
  3
SCENEOE
 90
     4095
 91
        0
280
     0
281
     0
  0
ENDSEC
  0
SECTION
  2
TABLES
  0
TABLE
  2
VPORT
  5
25
102
{ACAD_XDICTIONARY
360
2A
102
}
330
0
100
AcDbSymbolTable
 70
     1
  0
VPORT
  5
26
330
25
100
AcDbSymbolTableRecord
100
AcDbViewportTableRecord
  2
*Active
 70
     0
 10
0.0
 20
0.0
 11
1.0
 21
1.0
 12
1504034.488543856
 22
4346312.960949823
 13
0.0
 23
0.0
 14
0.1
 24
0.1
 15
0.1
 25
0.1
 16
0.0
 26
0.0
 36
1.0
 17
0.0
 27
0.0
 37
0.0
 40
543.6859942891102
 41
2.051451187335092
 42
50.0
 43
0.0
 44
0.0
 50
0.0
 51
0.0
 71
     0
 72
   100
 73
     1
 74
     2
 75
     0
 76
     1
 77
     0
 78
     1
281
     0
 65
     1
110
0.0
120
0.0
130
0.0
111
1.0
121
0.0
131
0.0
112
0.0
122
1.0
132
0.0
 79
     0
146
0.0
348
27
 60
     3
 61
     5
292
     1
282
     1
141
0.0
142
0.0
 63
   250
421
  3355443
1001
ACAD_NAV_VCDISPLAY
1070
     3
  0
ENDTAB
  0
TABLE
  2
LTYPE
  5
20
330
0
100
AcDbSymbolTable
 70
    12
  0
LTYPE
  5
21
330
20
100
AcDbSymbolTableRecord
100
AcDbLinetypeTableRecord
  2
ByBlock
 70
     0
  3

 72
    65
 73
     0
 40
0.0
  0
LTYPE
  5
22
330
20
100
AcDbSymbolTableRecord
100
AcDbLinetypeTableRecord
  2
ByLayer
 70
     0
  3

 72
    65
 73
     0
 40
0.0
  0
LTYPE
  5
F
330
20
100
AcDbSymbolTableRecord
100
AcDbLinetypeTableRecord
  2
Continuous
 70
     0
  3
Solid line
 72
    65
 73
     0
 40
0.0
  0
LTYPE
  5
167
330
20
100
AcDbSymbolTableRecord
100
AcDbLinetypeTableRecord
  2
FCANAL4000
 70
     0
  3
Canaletta al 4000
 72
    65
 73
     5
 40
56.0
 49
16.0
 74
     0
 49
-4.0
 74
     0
 49
16.0
 74
     4
 75
   115
340
168
 46
0.04672
 50
0.0
 44
0.0
 45
0.0
 49
16.0
 74
     0
 49
-4.0
 74
     0
  0
LTYPE
  5
89
330
20
100
AcDbSymbolTableRecord
100
AcDbLinetypeTableRecord
  2
DGN Style 2
 70
     0
  3
Dgn Style 2
 72
    65
 73
     2
 40
21.7568
 49
13.05408
 74
     0
 49
-8.702720000000001
 74
     0
  0
LTYPE
  5
9C
330
20
100
AcDbSymbolTableRecord
100
AcDbLinetypeTableRecord
  2
DGN Style 5
 70
     0
  3
Dgn Style 5
 72
    65
 73
     2
 40
15.22976
 49
6.52704
 74
     0
 49
-8.702720000000001
 74
     0
  0
LTYPE
  5
85
330
20
100
AcDbSymbolTableRecord
100
AcDbLinetypeTableRecord
  2
DGN Style 1
 70
     0
  3
Dgn Style 1
 72
    65
 73
     2
 40
13.0758368
 49
0.0217568
 74
     0
 49
-13.05408
 74
     0
  0
LTYPE
  5
8E
330
20
100
AcDbSymbolTableRecord
100
AcDbLinetypeTableRecord
  2
DGN Style 4
 70
     0
  3
Dgn Style 4
 72
    65
 73
     4
 40
34.8326368
 49
17.40544
 74
     0
 49
-8.702720000000001
 74
     0
 49
0.0217568
 74
     0
 49
-8.702720000000001
 74
     0
  0
LTYPE
  5
222
330
20
100
AcDbSymbolTableRecord
100
AcDbLinetypeTableRecord
  2
SCARPATA4000
 70
     0
  3
Scarpata al 4000
 72
    65
 73
     2
 40
2.62
 49
-0.31
 74
     4
 75
    83
340
168
 46
0.01792
 50
0.0
 44
0.0
 45
0.0
 49
-2.31
 74
     0
  0
LTYPE
  5
172
330
20
100
AcDbSymbolTableRecord
100
AcDbLinetypeTableRecord
  2
MSD4000
 70
     0
  3
Muro a calce al 4000
 72
    65
 73
     2
 40
14.0
 49
7.0
 74
     4
 75
   117
340
168
 46
0.02
 50
0.0
 44
0.0
 45
0.0
 49
7.0
 74
     0
  0
LTYPE
  5
1F5
330
20
100
AcDbSymbolTableRecord
100
AcDbLinetypeTableRecord
  2
STACCIO4000
 70
     0
  3
Staccionata al 4000
 72
    65
 73
     4
 40
18.0
 49
5.5
 74
     0
 49
-0.75
 74
     4
 75
   119
340
168
 46
0.01208
 50
0.0
 44
0.0
 45
0.0
 49
-0.75
 74
     0
 49
11.0
 74
     0
  0
LTYPE
  5
1E4
330
20
100
AcDbSymbolTableRecord
100
AcDbLinetypeTableRecord
  2
MST4000
 70
     0
  3
Muro di sostegno al 4000
 72
    65
 73
     2
 40
18.0
 49
9.0
 74
     4
 75
   118
340
168
 46
0.024
 50
0.0
 44
0.0
 45
0.0
 49
9.0
 74
     0
  0
LTYPE
  5
16D
330
20
100
AcDbSymbolTableRecord
100
AcDbLinetypeTableRecord
  2
FILALB4000
 70
     0
  3
Filare di alberi al 4000
 72
    65
 73
     7
 40
32.0
 49
4.0
 74
     0
 49
-4.0
 74
     0
 49
4.0
 74
     0
 49
-6.0
 74
     4
 75
    10
340
168
 46
0.03216
 50
0.0
 44
0.0
 45
0.0
 49
-6.0
 74
     0
 49
4.0
 74
     0
 49
-4.0
 74
     0
  0
LTYPE
  5
206
330
20
100
AcDbSymbolTableRecord
100
AcDbLinetypeTableRecord
  2
SIEPE4000
 70
     0
  3
Siepe al 4000
 72
    65
 73
     5
 40
25.0
 49
7.5
 74
     0
 49
-1.25
 74
     4
 75
   120
340
168
 46
0.02008
 50
0.0
 44
0.0
 45
0.0
 49
-1.25
 74
     0
 49
7.5
 74
     4
 75
   121
340
168
 46
0.01296
 50
0.0
 44
0.0
 45
0.0
 49
7.5
 74
     4
 75
   122
340
168
 46
0.01296
 50
0.0
 44
0.0
 45
0.0
  0
ENDTAB
  0
TABLE
  2
LAYER
  5
19
102
{ACAD_XDICTIONARY
360
1A
102
}
330
0
100
AcDbSymbolTable
 70
     4
  0
LAYER
  5
6
102
{ACAD_XDICTIONARY
360
7
102
}
330
19
100
AcDbSymbolTableRecord
100
AcDbLayerTableRecord
  2
0
 70
     0
 62
     7
  6
Continuous
370
    -3
390
9
347
D
348
0
  0
LAYER
  5
21A
102
{ACAD_XDICTIONARY
360
21B
102
}
330
19
100
AcDbSymbolTableRecord
100
AcDbLayerTableRecord
  2
SCUOLA
 70
     0
 62
     7
  6
Continuous
370
     0
390
9
347
D
348
0
1001
AcAecLayerStandard
1000

1000
P
  0
LAYER
  5
154
102
{ACAD_XDICTIONARY
360
155
102
}
330
19
100
AcDbSymbolTableRecord
100
AcDbLayerTableRecord
  2
ALBERO
 70
     0
 62
     7
  6
Continuous
370
     0
390
9
347
D
348
0
1001
AcAecLayerStandard
1000

1000
P
  0
LAYER
  5
1EF
102
{ACAD_XDICTIONARY
360
1F0
102
}
330
19
100
AcDbSymbolTableRecord
100
AcDbLayerTableRecord
  2
POZZO SIMBOLO
 70
     0
 62
     7
  6
Continuous
370
     0
390
9
347
D
348
0
1001
AcAecLayerStandard
1000

1000
P
  0
ENDTAB
  0
TABLE
  2
STYLE
  5
1D
330
0
100
AcDbSymbolTable
 70
     4
  0
STYLE
  5
1E
330
1D
100
AcDbSymbolTableRecord
100
AcDbTextStyleTableRecord
  2
Standard
 70
     0
 40
0.0
 41
1.0
 50
0.0
 71
     0
 42
0.2
  3
txt
  4

  0
STYLE
  5
168
330
1D
100
AcDbSymbolTableRecord
100
AcDbTextStyleTableRecord
  2

 70
     1
 40
1.0
 41
1.0
 50
0.0
 71
     0
 42
0.2
  3
dgnlstyle-mapstyle.shx
  4

  0
STYLE
  5
21F
330
1D
100
AcDbSymbolTableRecord
100
AcDbTextStyleTableRecord
  2
Style-font021
 70
     0
 40
0.0
 41
1.0
 50
0.0
 71
     0
 42
0.2
  3
font021.shx
  4

  0
STYLE
  5
51
330
1D
100
AcDbSymbolTableRecord
100
AcDbTextStyleTableRecord
  2
scrittestrade
 70
     0
 40
0.0
 41
1.0
 50
0.0
 71
     0
 42
0.2
  3
arial.ttf
  4

1001
ACAD
1000
Arial
1071
       34
  0
ENDTAB
  0
TABLE
  2
VIEW
  5
23
330
0
100
AcDbSymbolTable
 70
     0
  0
ENDTAB
  0
TABLE
  2
UCS
  5
24
330
0
100
AcDbSymbolTable
 70
     0
  0
ENDTAB
  0
TABLE
  2
APPID
  5
2B
330
0
100
AcDbSymbolTable
 70
     4
  0
APPID
  5
2C
330
2B
100
AcDbSymbolTableRecord
100
AcDbRegAppTableRecord
  2
ACAD
 70
     0
  0
APPID
  5
157
330
2B
100
AcDbSymbolTableRecord
100
AcDbRegAppTableRecord
  2
AcAecLayerStandard
 70
     0
  0
APPID
  5
29
330
2B
100
AcDbSymbolTableRecord
100
AcDbRegAppTableRecord
  2
ACAD_NAV_VCDISPLAY
 70
     0
  0
APPID
  5
C
330
2B
100
AcDbSymbolTableRecord
100
AcDbRegAppTableRecord
  2
ADE
 70
     0
  0
ENDTAB
  0
TABLE
  2
DIMSTYLE
  5
2D
330
0
100
AcDbSymbolTable
 70
     1
100
AcDbDimStyleTable
 71
     1
340
2E
  0
DIMSTYLE
105
2E
330
2D
100
AcDbSymbolTableRecord
100
AcDbDimStyleTableRecord
  2
Standard
 70
     0
 41
0.18
 44
0.18
140
0.18
141
0.09
147
0.09
340
1E
  0
ENDTAB
  0
TABLE
  2
BLOCK_RECORD
  5
1
330
0
100
AcDbSymbolTable
 70
     3
  0
BLOCK_RECORD
  5
2
102
{ACAD_XDICTIONARY
360
3
102
}
330
1
100
AcDbSymbolTableRecord
100
AcDbBlockTableRecord
  2
*Model_Space
340
11
 70
     0
280
     1
281
     0
  0
BLOCK_RECORD
  5
15
330
1
100
AcDbSymbolTableRecord
100
AcDbBlockTableRecord
  2
*Paper_Space
340
18
 70
     0
280
     1
281
     0
  0
BLOCK_RECORD
  5
217
330
1
100
AcDbSymbolTableRecord
100
AcDbBlockTableRecord
  2
s
340
0
102
{BLKREFS
331
216
102
}
 70
     0
280
     1
281
     0
  0
BLOCK_RECORD
  5
151
330
1
100
AcDbSymbolTableRecord
100
AcDbBlockTableRecord
  2
albero_1
340
0
102
{BLKREFS
331
150
331
159
331
15A
331
15B
331
15C
331
15D
331
15E
331
15F
331
160
331
161
331
162
331
163
331
164
331
165
102
}
 70
     0
280
     1
281
     0
  0
BLOCK_RECORD
  5
1EC
330
1
100
AcDbSymbolTableRecord
100
AcDbBlockTableRecord
  2
pozzo_1
340
0
102
{BLKREFS
331
1EB
102
}
 70
     0
280
     1
281
     0
  0
ENDTAB
  0
ENDSEC
  0
SECTION
  2
BLOCKS
  0
BLOCK
  5
5
330
2
100
AcDbEntity
  8
0
100
AcDbBlockBegin
  2
*Model_Space
 70
     0
 10
0.0
 20
0.0
 30
0.0
  3
*Model_Space
  1

  0
ENDBLK
  5
10
330
2
100
AcDbEntity
  8
0
100
AcDbBlockEnd
  0
BLOCK
  5
16
330
15
100
AcDbEntity
 67
     1
  8
0
100
AcDbBlockBegin
  2
*Paper_Space
 70
     0
 10
0.0
 20
0.0
 30
0.0
  3
*Paper_Space
  1

  0
ENDBLK
  5
17
330
15
100
AcDbEntity
 67
     1
  8
0
100
AcDbBlockEnd
  0
BLOCK
  5
218
330
217
100
AcDbEntity
  8
0
100
AcDbBlockBegin
  2
s
 70
     0
 10
0.0
 20
0.0
 30
0.0
  3
s
  1

  0
HATCH
  5
219
330
217
100
AcDbEntity
  8
SCUOLA
  6
Continuous
 62
   254
370
    30
100
AcDbHatch
 10
0.0
 20
0.0
 30
0.0
210
0.0
220
0.0
230
1.0
  2
SOLID
 70
     1
 71
     1
 91
        1
 92
        1
 93
        1
 72
     2
 10
0.000000000001819
 20
0.0
 40
0.035
 50
0.0
 51
360.0
 73
     1
 97
        1
330
21D
 75
     0
 76
     1
 98
        0
450
        0
451
        0
460
0.0
461
0.0
452
        0
462
0.0
453
        0
470

  0
CIRCLE
  5
21D
102
{ACAD_REACTORS
330
219
102
}
330
217
100
AcDbEntity
  8
SCUOLA
  6
Continuous
 62
     7
370
    30
100
AcDbCircle
 10
0.000000000001819
 20
0.0
 30
0.0
 40
0.035
  0
TEXT
  5
21E
330
217
100
AcDbEntity
  8
SCUOLA
  6
Continuous
 62
     7
370
     0
100
AcDbText
 10
-0.0083024971614422
 20
-0.0124000000004111
 30
0.0
 40
0.0249996
  1
S
  7
Style-font021
 72
     1
 11
0.0000307028385578
 21
0.0000997999995889
 31
0.0
100
AcDbText
 73
     2
  0
ENDBLK
  5
220
330
217
100
AcDbEntity
  8
0
100
AcDbBlockEnd
  0
BLOCK
  5
152
330
151
100
AcDbEntity
  8
0
100
AcDbBlockBegin
  2
albero_1
 70
     0
 10
0.0
 20
0.0
 30
0.0
  3
albero_1
  1

  0
CIRCLE
  5
153
330
151
100
AcDbEntity
  8
ALBERO
  6
Continuous
 62
     3
370
     0
100
AcDbCircle
 10
0.000000000001819
 20
0.0
 30
0.0
 40
0.0112040707215438
  0
ENDBLK
  5
158
330
151
100
AcDbEntity
  8
0
100
AcDbBlockEnd
  0
BLOCK
  5
1ED
330
1EC
100
AcDbEntity
  8
0
100
AcDbBlockBegin
  2
pozzo_1
 70
     0
 10
0.0
 20
0.0
 30
0.0
  3
pozzo_1
  1

  0
ARC
  5
1EE
330
1EC
100
AcDbEntity
  8
POZZO SIMBOLO
  6
Continuous
 62
     5
370
    13
100
AcDbCircle
 10
0.000000000003638
 20
0.0
 30
0.0
 40
0.0172816665862989
100
AcDbArc
 50
228.9586861111111
 51
66.75592777777779
  0
LWPOLYLINE
  5
1F2
330
1EC
100
AcDbEntity
  8
POZZO SIMBOLO
  6
Continuous
 62
     5
370
    13
100
AcDbPolyline
 90
        3
 70
   129
 43
0.0
 10
-0.0113485122910788
 20
-0.013033313996857
 42
-0.6755389245182013
 10
0.0068201889280317
 20
0.0158789490524214
 42
0.8556118908592738
 10
-0.0113471950171515
 20
-0.0130344606805011
  0
ENDBLK
  5
1F3
330
1EC
100
AcDbEntity
  8
0
100
AcDbBlockEnd
  0
ENDSEC
  0
SECTION
  2
ENTITIES
  0
LWPOLYLINE
  5
68
102
{ACAD_REACTORS
330
224
102
}
330
2
100
AcDbEntity
  8
0
  6
Continuous
 62
     7
370
    13
100
AcDbPolyline
 90
       20
 70
   129
 43
0.0
 10
1503986.609999999
 20
4346243.779999997
 10
1503980.699999999
 20
4346233.519999997
 10
1503934.959999998
 20
4346259.889999997
 10
1503940.869999999
 20
4346270.149999998
 10
1503943.279999998
 20
4346268.769999998
 10
1503944.509999998
 20
4346268.049999999
 10
1503947.609999999
 20
4346266.319999998
 10
1503948.699999999
 20
4346265.639999999
 10
1503953.259999998
 20
4346263.009999997
 10
1503954.449999998
 20
4346262.319999998
 10
1503963.019999998
 20
4346257.379999998
 10
1503964.199999998
 20
4346256.699999999
 10
1503968.809999999
 20
4346254.049999998
 10
1503969.999999998
 20
4346253.359999997
 10
1503974.969999997
 20
4346250.499999996
 10
1503976.119999999
 20
4346249.829999997
 10
1503977.809999998
 20
4346248.869999997
 10
1503978.819999998
 20
4346248.269999998
 10
1503983.809999998
 20
4346245.399999999
 10
1503984.939999998
 20
4346244.739999998
  0
LWPOLYLINE
  5
69
102
{ACAD_REACTORS
330
225
102
}
330
2
100
AcDbEntity
  8
0
  6
Continuous
 62
     7
370
    13
100
AcDbPolyline
 90
        8
 70
   129
 43
0.0
 10
1503978.629999997
 20
4346419.169999998
 10
1503947.719999997
 20
4346363.889999997
 10
1503936.629999997
 20
4346370.089999997
 10
1503938.809999999
 20
4346373.979999999
 10
1503936.859999999
 20
4346375.069999997
 10
1503963.389999997
 20
4346422.629999998
 10
1503965.379999996
 20
4346421.519999997
 10
1503967.509999998
 20
4346425.349999997
  0
LWPOLYLINE
  5
6A
102
{ACAD_REACTORS
330
226
102
}
330
2
100
AcDbEntity
  8
0
  6
Continuous
 62
     7
370
    13
100
AcDbPolyline
 90
        4
 70
   129
 43
0.0
 10
1503783.579999998
 20
4346334.139999997
 10
1503782.119999998
 20
4346330.309999996
 10
1503775.759999998
 20
4346332.729999996
 10
1503777.219999998
 20
4346336.559999996
  0
LWPOLYLINE
  5
6B
102
{ACAD_REACTORS
330
227
102
}
330
2
100
AcDbEntity
  8
0
  6
Continuous
 62
     7
370
    13
100
AcDbPolyline
 90
        4
 70
   129
 43
0.0
 10
1503784.675999998
 20
4346328.091999997
 10
1503784.358999998
 20
4346327.269999997
 10
1503781.450999998
 20
4346328.380999997
 10
1503781.963999998
 20
4346329.740999999
  0
LWPOLYLINE
  5
6C
102
{ACAD_REACTORS
330
228
102
}
330
2
100
AcDbEntity
  8
0
  6
Continuous
 62
     7
370
    13
100
AcDbPolyline
 90
       17
 70
   129
 43
0.0
 10
1503852.579999998
 20
4346371.969999997
 10
1503865.029999998
 20
4346372.859999998
 10
1503870.679999998
 20
4346378.769999997
 10
1503876.339999998
 20
4346379.359999998
 10
1503878.709999997
 20
4346377.389999997
 10
1503878.899999997
 20
4346376.229999997
 10
1503883.409999998
 20
4346376.569999997
 10
1503886.637999998
 20
4346330.915999997
 10
1503885.404999998
 20
4346329.649999999
 10
1503884.719999998
 20
4346329.579999999
 10
1503882.149999998
 20
4346329.279999998
 10
1503882.149999998
 20
4346329.279999998
 10
1503882.049999999
 20
4346328.579999997
 10
1503880.229999998
 20
4346326.289999997
 10
1503874.119999999
 20
4346326.069999998
 10
1503868.199999998
 20
4346330.989999997
 10
1503855.729999998
 20
4346330.079999998
  0
LWPOLYLINE
  5
6D
102
{ACAD_REACTORS
330
229
102
}
330
2
100
AcDbEntity
  8
0
  6
Continuous
 62
     7
370
    13
100
AcDbPolyline
 90
        4
 70
   129
 43
0.0
 10
1503841.399999997
 20
4346370.529999997
 10
1503835.869999998
 20
4346364.299999997
 10
1503831.829999998
 20
4346367.899999997
 10
1503837.359999997
 20
4346374.119999999
  0
LWPOLYLINE
  5
6E
102
{ACAD_REACTORS
330
22A
102
}
330
2
100
AcDbEntity
  8
0
  6
Continuous
 62
     7
370
    13
100
AcDbPolyline
 90
        4
 70
   129
 43
0.0
 10
1503839.349999998
 20
4346366.269999998
 10
1503849.349999998
 20
4346356.989999997
 10
1503843.779999998
 20
4346350.989999998
 10
1503833.779999997
 20
4346360.269999998
  0
LWPOLYLINE
  5
6F
102
{ACAD_REACTORS
330
22B
102
}
330
2
100
AcDbEntity
  8
0
  6
Continuous
 62
     7
370
    13
100
AcDbPolyline
 90
        8
 70
   129
 43
0.0
 10
1503767.249999998
 20
4346407.099999995
 10
1503794.459999997
 20
4346382.579999998
 10
1503789.079999998
 20
4346376.609999997
 10
1503795.949999997
 20
4346370.419999996
 10
1503778.719999998
 20
4346351.299999997
 10
1503744.639999997
 20
4346382.019999995
 10
1503751.592999998
 20
4346389.747999998
 10
1503753.235999997
 20
4346391.569999997
  0
LWPOLYLINE
  5
70
102
{ACAD_REACTORS
330
22C
102
}
330
2
100
AcDbEntity
  8
0
  6
Continuous
 62
     7
370
    13
100
AcDbPolyline
 90
        4
 70
   129
 43
0.0
 10
1503869.469999997
 20
4346402.299999997
 10
1503859.359999998
 20
4346391.179999998
 10
1503854.759999998
 20
4346395.359999998
 10
1503864.869999998
 20
4346406.479999998
  0
LWPOLYLINE
  5
71
102
{ACAD_REACTORS
330
22D
102
}
330
2
100
AcDbEntity
  8
0
  6
Continuous
 62
     7
370
    13
100
AcDbPolyline
 90
        4
 70
   129
 43
0.0
 10
1503878.149999998
 20
4346394.509999998
 10
1503867.869999998
 20
4346383.339999998
 10
1503862.789999998
 20
4346388.019999998
 10
1503873.069999998
 20
4346399.189999996
  0
LWPOLYLINE
  5
72
102
{ACAD_REACTORS
330
22E
102
}
330
2
100
AcDbEntity
  8
0
  6
Continuous
 62
     7
370
    13
100
AcDbPolyline
 90
        4
 70
   129
 43
0.0
 10
1503635.719999998
 20
4346394.749999996
 10
1503638.209999998
 20
4346392.339999996
 10
1503636.249999997
 20
4346390.859999997
 10
1503633.719999998
 20
4346393.269999995
  0
LWPOLYLINE
  5
73
102
{ACAD_REACTORS
330
22F
102
}
330
2
100
AcDbEntity
  8
0
  6
Continuous
 62
     7
370
    13
100
AcDbPolyline
 90
        8
 70
   129
 43
0.0
 10
1503904.949999997
 20
4346360.039999997
 10
1503909.019999997
 20
4346356.889999997
 10
1503909.549999998
 20
4346351.789999998
 10
1503906.369999998
 20
4346347.659999996
 10
1503901.389999998
 20
4346346.959999998
 10
1503897.229999998
 20
4346350.099999996
 10
1503896.389999997
 20
4346355.339999998
 10
1503899.519999998
 20
4346359.319999999
  0
LWPOLYLINE
  5
74
102
{ACAD_REACTORS
330
230
102
}
330
2
100
AcDbEntity
  8
0
  6
Continuous
 62
     7
370
    13
100
AcDbPolyline
 90
        4
 70
   129
 43
0.0
 10
1503938.289999998
 20
4346339.449999997
 10
1503938.919999998
 20
4346337.709999997
 10
1503936.929999997
 20
4346336.999999997
 10
1503936.299999997
 20
4346338.729999998
  0
LWPOLYLINE
  5
75
102
{ACAD_REACTORS
330
231
102
}
330
2
100
AcDbEntity
  8
0
  6
Continuous
 62
     7
370
    13
100
AcDbPolyline
 90
       68
 70
   129
 43
0.0
 10
1503858.429999997
 20
4346637.989999998
 10
1503863.209999997
 20
4346634.449999997
 10
1503863.869999997
 20
4346635.249999998
 10
1503868.009999997
 20
4346631.969999998
 10
1503862.639999996
 20
4346624.519999997
 10
1503858.059999996
 20
4346618.169999998
 10
1503855.839999997
 20
4346619.569999998
 10
1503851.379999996
 20
4346613.239999999
 10
1503855.199999996
 20
4346610.479999998
 10
1503853.459999997
 20
4346608.159999998
 10
1503854.639999996
 20
4346607.369999997
 10
1503853.309999997
 20
4346605.379999997
 10
1503857.019999997
 20
4346602.569999999
 10
1503858.939999996
 20
4346605.179999998
 10
1503862.819999996
 20
4346602.399999997
 10
1503865.669999996
 20
4346606.179999998
 10
1503874.071999997
 20
4346600.065999999
 10
1503868.609999996
 20
4346592.319999997
 10
1503864.919999997
 20
4346595.109999999
 10
1503856.299999997
 20
4346601.589999996
 10
1503855.809999997
 20
4346600.909999998
 10
1503847.599999998
 20
4346607.109999998
 10
1503845.309999997
 20
4346603.859999998
 10
1503849.089999997
 20
4346600.929999998
 10
1503845.709999997
 20
4346596.339999997
 10
1503846.839999997
 20
4346595.519999998
 10
1503845.869999997
 20
4346594.259999998
 10
1503843.279999997
 20
4346596.109999997
 10
1503838.499999997
 20
4346589.869999997
 10
1503840.819999997
 20
4346588.169999996
 10
1503839.192999997
 20
4346585.929999996
 10
1503837.949999997
 20
4346586.819999997
 10
1503830.999999997
 20
4346577.329999997
 10
1503829.069999996
 20
4346578.749999996
 10
1503824.949999997
 20
4346573.239999997
 10
1503824.059999997
 20
4346573.929999996
 10
1503820.709999997
 20
4346569.609999995
 10
1503818.839999997
 20
4346567.209999997
 10
1503819.862999996
 20
4346566.473999997
 10
1503814.989999997
 20
4346559.699999997
 10
1503816.339999998
 20
4346558.649999997
 10
1503814.999999997
 20
4346556.929999996
 10
1503811.989999997
 20
4346559.159999996
 10
1503810.159999997
 20
4346556.709999995
 10
1503811.839999997
 20
4346555.459999995
 10
1503807.919999997
 20
4346550.229999998
 10
1503805.739999997
 20
4346547.309999997
 10
1503806.748999997
 20
4346546.578999998
 10
1503798.639999997
 20
4346535.539999996
 10
1503802.219999997
 20
4346532.979999999
 10
1503803.649999997
 20
4346534.779999998
 10
1503807.499999997
 20
4346531.879999997
 10
1503803.949999997
 20
4346527.509999997
 10
1503787.169999997
 20
4346540.069999998
 10
1503803.259999997
 20
4346561.819999998
 10
1503820.499999997
 20
4346585.089999997
 10
1503822.244999997
 20
4346583.769999996
 10
1503824.353999997
 20
4346586.557999998
 10
1503822.608999996
 20
4346587.877999996
 10
1503825.544999997
 20
4346591.758999997
 10
1503827.289999997
 20
4346590.438999997
 10
1503829.398999997
 20
4346593.226999997
 10
1503827.653999998
 20
4346594.546999997
 10
1503834.979999996
 20
4346604.229999996
 10
1503841.859999997
 20
4346614.059999997
 10
1503844.549999997
 20
4346618.149999996
 10
1503843.999999997
 20
4346618.549999996
 10
1503852.129999996
 20
4346629.689999998
  0
LWPOLYLINE
  5
76
102
{ACAD_REACTORS
330
232
102
}
330
2
100
AcDbEntity
  8
0
  6
Continuous
 62
     7
370
    13
100
AcDbPolyline
 90
       44
 70
   129
 43
0.0
 10
1503999.999999998
 20
4346494.317999998
 10
1503987.379999997
 20
4346502.449999999
 10
1503986.589999998
 20
4346501.219999997
 10
1503982.239999998
 20
4346504.019999995
 10
1503982.959999998
 20
4346505.129999997
 10
1503960.849999997
 20
4346519.309999997
 10
1503960.069999997
 20
4346518.099999998
 10
1503955.729999997
 20
4346520.889999998
 10
1503956.459999997
 20
4346522.019999998
 10
1503955.319999998
 20
4346522.749999998
 10
1503960.149999997
 20
4346530.259999997
 10
1503964.988999997
 20
4346527.135999997
 10
1503966.126999997
 20
4346528.896999997
 10
1503967.776999997
 20
4346527.831999998
 10
1503966.639999996
 20
4346526.069999998
 10
1503968.629999997
 20
4346524.799999999
 10
1503969.739999997
 20
4346526.529999998
 10
1503975.439999997
 20
4346522.859999999
 10
1503974.419999997
 20
4346521.269999995
 10
1503979.059999997
 20
4346518.289999997
 10
1503980.129999997
 20
4346519.959999997
 10
1503985.779999997
 20
4346516.329999998
 10
1503984.739999997
 20
4346514.709999997
 10
1503986.959999997
 20
4346513.279999999
 10
1503988.032999997
 20
4346514.946999997
 10
1503989.496999997
 20
4346514.004999997
 10
1503988.422999997
 20
4346512.337999997
 10
1503995.159999998
 20
4346507.999999998
 10
1503996.269999997
 20
4346509.709999997
 10
1503999.999999997
 20
4346507.305999998
 10
1504001.979999997
 20
4346506.029999997
 10
1504000.909999996
 20
4346504.369999998
 10
1504005.549999997
 20
4346501.379999997
 10
1504006.629999998
 20
4346503.039999999
 10
1504012.409999997
 20
4346499.299999996
 10
1504011.249999997
 20
4346497.519999998
 10
1504013.309999997
 20
4346496.189999998
 10
1504014.509999997
 20
4346498.045999998
 10
1504016.150999997
 20
4346496.985999998
 10
1504014.950999998
 20
4346495.128999999
 10
1504019.589999997
 20
4346492.129999999
 10
1504014.969999996
 20
4346484.999999998
 10
1504013.959999997
 20
4346485.649999998
 10
1504009.509999997
 20
4346488.189999997
  0
LWPOLYLINE
  5
77
102
{ACAD_REACTORS
330
233
102
}
330
2
100
AcDbEntity
  8
0
  6
Continuous
 62
     7
370
    13
100
AcDbPolyline
 90
       14
 70
   129
 43
0.0
 10
1503999.999999997
 20
4346457.470999997
 10
1504038.349999997
 20
4346484.189999999
 10
1504039.649999997
 20
4346482.309999998
 10
1504043.289999998
 20
4346484.839999999
 10
1504050.389999997
 20
4346474.639999997
 10
1504047.635999997
 20
4346472.718999999
 10
1504048.998999998
 20
4346470.765999999
 10
1504045.678999998
 20
4346468.450999998
 10
1504044.316999998
 20
4346470.403999999
 10
1503999.999999998
 20
4346439.493999999
 10
1503983.749999998
 20
4346428.159999998
 10
1503976.589999997
 20
4346438.429999998
 10
1503980.179999998
 20
4346440.929999997
 10
1503978.899999998
 20
4346442.769999998
  0
LWPOLYLINE
  5
78
102
{ACAD_REACTORS
330
234
102
}
330
2
100
AcDbEntity
  8
0
  6
Continuous
 62
     7
370
    13
100
AcDbPolyline
 90
       16
 70
   129
 43
0.0
 10
1503999.999999998
 20
4346337.443999998
 10
1503999.209999998
 20
4346336.419999998
 10
1503998.667999998
 20
4346335.713999998
 10
1503997.837999998
 20
4346334.633999997
 10
1503993.359999998
 20
4346328.839999998
 10
1503992.599999998
 20
4346327.859999997
 10
1503991.978999998
 20
4346327.050999997
 10
1503989.609999999
 20
4346323.979999998
 10
1503987.039999998
 20
4346320.649999999
 10
1503986.009999998
 20
4346320.679999998
 10
1503977.109999998
 20
4346327.859999997
 10
1503995.699999998
 20
4346351.519999998
 10
1503999.999999998
 20
4346347.814999997
 10
1504004.002999997
 20
4346344.292999997
 10
1504002.973999998
 20
4346342.957999999
 10
1504003.779999998
 20
4346342.335999997
  0
LWPOLYLINE
  5
79
102
{ACAD_REACTORS
330
235
102
}
330
2
100
AcDbEntity
  8
0
  6
Continuous
 62
     7
370
    13
100
AcDbPolyline
 90
       21
 70
   129
 43
0.0
 10
1503999.999999998
 20
4346289.023999998
 10
1503964.589999998
 20
4346309.479999998
 10
1503964.889999998
 20
4346309.999999999
 10
1503979.699999999
 20
4346311.449999998
 10
1503979.299999998
 20
4346309.729999997
 10
1503982.099999997
 20
4346308.209999997
 10
1503983.569999997
 20
4346310.999999998
 10
1503983.899999998
 20
4346311.629999998
 10
1503992.879999998
 20
4346312.299999997
 10
1503990.269999998
 20
4346306.639999997
 10
1503988.729999997
 20
4346307.449999998
 10
1503987.529999998
 20
4346305.259999998
 10
1503991.329999998
 20
4346303.199999997
 10
1503991.799999998
 20
4346304.139999997
 10
1503994.359999999
 20
4346302.749999998
 10
1503994.545999998
 20
4346302.650999996
 10
1503999.999999998
 20
4346299.676999997
 10
1504004.349999998
 20
4346297.309999997
 10
1504007.059999997
 20
4346301.899999998
 10
1504014.279999998
 20
4346297.619999999
 10
1504007.069999998
 20
4346284.939999997
  0
LWPOLYLINE
  5
7A
102
{ACAD_REACTORS
330
236
102
}
330
2
100
AcDbEntity
  8
0
  6
Continuous
 62
     7
370
    13
100
AcDbPolyline
 90
       41
 70
   129
 43
0.0
 10
1503999.999999999
 20
4346270.089999998
 10
1503996.169999998
 20
4346263.049999997
 10
1503988.624999998
 20
4346267.171999998
 10
1503987.559999998
 20
4346267.739999998
 10
1503985.189999998
 20
4346263.129999997
 10
1503982.279999998
 20
4346264.779999997
 10
1503985.009999999
 20
4346270.269999997
 10
1503967.869999999
 20
4346280.259999998
 10
1503964.919999998
 20
4346274.669999998
 10
1503962.869999999
 20
4346275.839999998
 10
1503965.149999998
 20
4346279.479999997
 10
1503964.829999998
 20
4346282.119999997
 10
1503960.419999998
 20
4346284.929999998
 10
1503956.999999999
 20
4346279.179999998
 10
1503953.899999999
 20
4346280.939999999
 10
1503957.649999998
 20
4346286.909999998
 10
1503958.712999998
 20
4346288.466999998
 10
1503954.239999998
 20
4346291.521999998
 10
1503953.543999998
 20
4346290.504999998
 10
1503949.445999998
 20
4346293.299999997
 10
1503951.749999998
 20
4346297.066999998
 10
1503952.589999998
 20
4346298.439999999
 10
1503947.149999998
 20
4346301.839999997
 10
1503952.339999998
 20
4346307.069999999
 10
1503956.499999998
 20
4346304.679999997
 10
1503955.299999998
 20
4346302.749999998
 10
1503963.949999998
 20
4346296.919999997
 10
1503963.559999998
 20
4346296.299999997
 10
1503965.393999998
 20
4346295.244999998
 10
1503974.189999998
 20
4346289.919999998
 10
1503975.389999998
 20
4346292.229999998
 10
1503977.059999998
 20
4346291.369999997
 10
1503975.849999998
 20
4346289.069999998
 10
1503987.589999999
 20
4346283.049999999
 10
1503989.208999997
 20
4346285.867999997
 10
1503993.069999997
 20
4346283.659999998
 10
1503990.799999999
 20
4346279.879999997
 10
1503993.409999998
 20
4346278.259999998
 10
1503993.009999998
 20
4346277.549999997
 10
1503999.999999998
 20
4346273.637999998
 10
1504001.479999999
 20
4346272.809999998
  0
LWPOLYLINE
  5
7B
102
{ACAD_REACTORS
330
237
102
}
330
2
100
AcDbEntity
  8
0
  6
Continuous
 62
     7
370
    13
100
AcDbPolyline
 90
       75
 70
   129
 43
0.0
 10
1503999.999999998
 20
4346202.644999998
 10
1503999.209999998
 20
4346203.519999997
 10
1503998.219999998
 20
4346202.609999997
 10
1503996.269999998
 20
4346204.889999997
 10
1503995.430999999
 20
4346205.867999999
 10
1503994.700999999
 20
4346206.707999999
 10
1503993.715999999
 20
4346207.853999999
 10
1503991.889999998
 20
4346209.999999998
 10
1503989.789999998
 20
4346212.429999998
 10
1503989.211999999
 20
4346213.118999998
 10
1503988.481999999
 20
4346213.958999999
 10
1503986.719999998
 20
4346216.009999998
 10
1503985.989999999
 20
4346216.849999999
 10
1503985.306999999
 20
4346217.667999998
 10
1503983.229999998
 20
4346220.109999997
 10
1503981.085999999
 20
4346222.565999998
 10
1503978.899999999
 20
4346225.109999998
 10
1503977.846999999
 20
4346226.358
 10
1503976.039999999
 20
4346228.459999998
 10
1503974.569999998
 20
4346227.109999999
 10
1503930.219999998
 20
4346252.139999997
 10
1503923.829999999
 20
4346241.689999998
 10
1503924.509999997
 20
4346241.307999998
 10
1503925.779999998
 20
4346240.581999999
 10
1503930.007999999
 20
4346238.182999998
 10
1503931.277999998
 20
4346237.457999999
 10
1503933.878999998
 20
4346235.965999998
 10
1503935.148999999
 20
4346235.239999998
 10
1503937.509999998
 20
4346233.879999997
 10
1503940.009999998
 20
4346232.449999997
 10
1503941.279999998
 20
4346231.724999998
 10
1503950.142999999
 20
4346226.676999997
 10
1503951.412999998
 20
4346225.950999998
 10
1503955.226999998
 20
4346223.760999998
 10
1503956.496999998
 20
4346223.035999997
 10
1503957.970999998
 20
4346222.184999996
 10
1503959.240999998
 20
4346221.458999997
 10
1503960.588999999
 20
4346220.698999998
 10
1503961.929999998
 20
4346219.934999997
 10
1503964.719999999
 20
4346218.339999998
 10
1503965.209999998
 20
4346218.769999997
 10
1503966.359999998
 20
4346219.799999998
 10
1503970.999999999
 20
4346214.799999999
 10
1503971.779999998
 20
4346215.609999998
 10
1503974.696999998
 20
4346212.392999998
 10
1503975.169999998
 20
4346212.819999997
 10
1503977.889999998
 20
4346209.739999999
 10
1503983.759999998
 20
4346203.069999998
 10
1503986.729999998
 20
4346199.709999997
 10
1503988.299999998
 20
4346197.909999998
 10
1503989.429999998
 20
4346198.839999998
 10
1503997.229999999
 20
4346189.969999996
 10
1503997.929999999
 20
4346189.169999998
 10
1503998.509999999
 20
4346189.699999997
 10
1503999.999999998
 20
4346191.055999998
 10
1504001.649999998
 20
4346192.559999997
 10
1504003.909999998
 20
4346189.879999999
 10
1504005.209999998
 20
4346190.969999997
 10
1504007.219999998
 20
4346188.709999997
 10
1504004.609999999
 20
4346186.399999998
 10
1504003.129999999
 20
4346188.019999997
 10
1504001.399999999
 20
4346186.449999997
 10
1504002.559999999
 20
4346185.149999999
 10
1504000.309999999
 20
4346183.049999999
 10
1504001.769999998
 20
4346181.179999998
 10
1504004.219999999
 20
4346183.289999997
 10
1504006.959999999
 20
4346180.209999997
 10
1504016.939999998
 20
4346188.609999999
 10
1504009.289999998
 20
4346197.719999997
 10
1504006.769999998
 20
4346195.469999996
 10
1504005.459999998
 20
4346196.009999998
 10
1504004.719999998
 20
4346197.279999997
 10
1504005.939999999
 20
4346198.499999998
 10
1504003.449999999
 20
4346201.139999998
 10
1504002.359999998
 20
4346200.029999998
  0
LWPOLYLINE
  5
7C
102
{ACAD_REACTORS
330
238
102
}
330
2
100
AcDbEntity
  8
0
  6
Continuous
 62
     7
370
    13
100
AcDbPolyline
 90
       28
 70
   129
 43
0.0
 10
1503849.659999997
 20
4346541.929999998
 10
1503867.609999997
 20
4346527.029999997
 10
1503869.096999998
 20
4346528.756999997
 10
1503874.166999996
 20
4346534.871999998
 10
1503875.619999998
 20
4346536.669999998
 10
1503870.619999998
 20
4346540.819999998
 10
1503873.187999998
 20
4346543.971999997
 10
1503875.451999997
 20
4346546.697999997
 10
1503878.489999997
 20
4346550.299999996
 10
1503897.419999997
 20
4346534.599999996
 10
1503894.971999997
 20
4346531.675999998
 10
1503891.895999998
 20
4346527.966999998
 10
1503889.689999997
 20
4346525.279999998
 10
1503884.849999997
 20
4346529.289999999
 10
1503877.039999997
 20
4346519.859999995
 10
1503895.459999997
 20
4346504.583999997
 10
1503885.379999997
 20
4346492.419999996
 10
1503867.179999997
 20
4346507.239999998
 10
1503859.359999997
 20
4346497.799999997
 10
1503864.349999997
 20
4346493.659999999
 10
1503856.629999997
 20
4346484.339999997
 10
1503837.509999997
 20
4346500.189999997
 10
1503845.249999997
 20
4346509.529999997
 10
1503848.326999998
 20
4346506.971999997
 10
1503850.089999997
 20
4346505.509999998
 10
1503852.632999998
 20
4346508.574999997
 10
1503857.829999997
 20
4346514.839999998
 10
1503839.669999997
 20
4346529.619999997
  0
LWPOLYLINE
  5
7D
330
2
100
AcDbEntity
  8
0
  6
Continuous
 62
     7
370
    40
100
AcDbPolyline
 90
        6
 70
   128
 43
0.0
 10
1503749.349999998
 20
4346234.809999996
 10
1503741.619999999
 20
4346241.419999998
 10
1503730.139999998
 20
4346250.769999996
 10
1503712.669999998
 20
4346264.999999997
 10
1503702.149999998
 20
4346272.169999996
 10
1503701.649999998
 20
4346272.509999998
  0
LWPOLYLINE
  5
7E
330
2
100
AcDbEntity
  8
0
  6
Continuous
 62
     7
370
    40
100
AcDbPolyline
 90
       14
 70
   128
 43
0.0
 10
1503940.679999999
 20
4346187.479999998
 10
1503875.659999998
 20
4346221.289999999
 10
1503853.159999998
 20
4346233.019999996
 10
1503845.729999998
 20
4346236.309999997
 10
1503835.189999998
 20
4346240.839999996
 10
1503820.309999999
 20
4346246.049999997
 10
1503805.589999998
 20
4346249.859999996
 10
1503793.329999998
 20
4346251.629999996
 10
1503781.149999999
 20
4346253.199999997
 10
1503763.549999999
 20
4346255.149999996
 10
1503753.309999998
 20
4346256.729999996
 10
1503740.669999998
 20
4346259.679999997
 10
1503729.169999998
 20
4346263.009999997
 10
1503701.689999999
 20
4346272.869999997
  0
LWPOLYLINE
  5
7F
330
2
100
AcDbEntity
  8
0
  6
Continuous
 62
     7
370
    40
100
AcDbPolyline
 90
       11
 70
   128
 43
0.0
 10
1503939.039999998
 20
4346183.239999998
 10
1503878.349999999
 20
4346214.869999998
 10
1503859.189999998
 20
4346224.699999997
 10
1503848.309999998
 20
4346230.309999996
 10
1503837.509999999
 20
4346235.359999998
 10
1503830.259999998
 20
4346238.519999996
 10
1503821.509999998
 20
4346241.639999997
 10
1503811.779999998
 20
4346244.609999997
 10
1503802.269999998
 20
4346246.899999998
 10
1503792.029999998
 20
4346249.219999997
 10
1503768.169999998
 20
4346254.639999997
  0
LWPOLYLINE
  5
80
330
2
100
AcDbEntity
  8
0
  6
Continuous
 62
     7
370
    40
100
AcDbPolyline
 90
        9
 70
   128
 43
0.0
 10
1503931.129999998
 20
4346169.339999998
 10
1503856.479999998
 20
4346208.249999998
 10
1503826.049999998
 20
4346223.679999996
 10
1503817.659999998
 20
4346227.549999997
 10
1503811.359999999
 20
4346230.249999997
 10
1503784.099999998
 20
4346240.249999996
 10
1503751.589999999
 20
4346252.079999997
 10
1503727.069999998
 20
4346261.589999998
 10
1503710.369999998
 20
4346269.759999996
  0
LWPOLYLINE
  5
81
330
2
100
AcDbEntity
  8
0
  6
Continuous
 62
     7
370
    40
100
AcDbPolyline
 90
       11
 70
   128
 43
0.0
 10
1503928.959999999
 20
4346165.179999998
 10
1503868.529999999
 20
4346196.789999997
 10
1503831.569999998
 20
4346215.749999997
 10
1503816.679999998
 20
4346222.309999997
 10
1503800.799999998
 20
4346228.559999997
 10
1503782.239999999
 20
4346236.069999998
 10
1503763.549999999
 20
4346243.889999997
 10
1503756.529999998
 20
4346247.139999997
 10
1503745.369999998
 20
4346252.369999995
 10
1503737.459999998
 20
4346256.269999996
 10
1503733.079999998
 20
4346259.259999997
  0
LWPOLYLINE
  5
82
330
2
100
AcDbEntity
  8
0
  6
Continuous
 62
     7
370
    40
100
AcDbPolyline
 90
        8
 70
   128
 43
0.0
 10
1503914.929999998
 20
4346148.499999998
 10
1503856.689999999
 20
4346178.759999998
 10
1503836.279999999
 20
4346189.679999998
 10
1503818.149999998
 20
4346199.609999998
 10
1503776.089999998
 20
4346224.389999997
 10
1503740.279999998
 20
4346247.219999997
 10
1503725.739999999
 20
4346256.769999997
 10
1503712.069999998
 20
4346265.409999997
  0
LWPOLYLINE
  5
83
330
2
100
AcDbEntity
  8
0
  6
Continuous
 62
     7
370
    40
100
AcDbPolyline
 90
       11
 70
   128
 43
0.0
 10
1503920.299999998
 20
4346133.269999998
 10
1503878.889999998
 20
4346154.709999998
 10
1503856.909999998
 20
4346166.929999997
 10
1503838.499999998
 20
4346177.309999998
 10
1503828.719999999
 20
4346182.859999998
 10
1503815.909999999
 20
4346190.419999996
 10
1503797.119999999
 20
4346201.249999999
 10
1503774.999999999
 20
4346214.699999997
 10
1503741.819999999
 20
4346234.989999997
 10
1503714.979999998
 20
4346252.199999997
 10
1503700.369999998
 20
4346261.649999997
  0
LWPOLYLINE
  5
84
330
2
100
AcDbEntity
  8
0
  6
DGN Style 1
 62
     7
370
     0
100
AcDbPolyline
 90
       15
 70
   128
 43
0.0
 10
1503748.165188485
 20
4346242.192944619
 10
1503751.179999999
 20
4346247.199999997
 10
1503766.829999998
 20
4346239.569999997
 10
1503783.199999999
 20
4346232.549999997
 10
1503786.569999998
 20
4346242.039999997
 10
1503766.719999998
 20
4346249.159999998
 10
1503767.669999999
 20
4346251.969999997
 10
1503792.389999997
 20
4346246.699999997
 10
1503793.549999998
 20
4346254.049999997
 10
1503758.369999999
 20
4346258.749999998
 10
1503738.789999998
 20
4346262.729999998
 10
1503727.299999999
 20
4346266.259999998
 10
1503715.769999998
 20
4346270.399999998
 10
1503708.269999998
 20
4346273.639999997
 10
1503702.159999998
 20
4346276.879999997
  0
LWPOLYLINE
  5
86
330
2
100
AcDbEntity
  8
0
  6
DGN Style 1
 62
     7
370
     0
100
AcDbPolyline
 90
       24
 70
   129
 43
0.0
 10
1503945.409999998
 20
4346205.479999999
 10
1503943.319999998
 20
4346201.429999998
 10
1503886.169999998
 20
4346231.019999997
 10
1503854.839999999
 20
4346247.299999997
 10
1503843.809999998
 20
4346252.959999997
 10
1503836.139999997
 20
4346256.319999996
 10
1503827.919999998
 20
4346259.499999998
 10
1503821.439999999
 20
4346261.439999999
 10
1503811.429999998
 20
4346264.599999996
 10
1503802.519999998
 20
4346266.409999997
 10
1503791.359999998
 20
4346268.259999996
 10
1503780.079999998
 20
4346269.549999997
 10
1503780.219999997
 20
4346274.359999998
 10
1503787.629999998
 20
4346273.749999999
 10
1503798.159999999
 20
4346272.729999998
 10
1503810.129999998
 20
4346270.499999997
 10
1503818.389999998
 20
4346268.379999997
 10
1503827.629999998
 20
4346264.859999998
 10
1503834.339999999
 20
4346262.339999996
 10
1503841.529999998
 20
4346259.519999996
 10
1503852.679999998
 20
4346253.969999998
 10
1503868.089999998
 20
4346246.069999998
 10
1503900.399999999
 20
4346228.999999998
 10
1503933.529999998
 20
4346211.759999998
  0
LWPOLYLINE
  5
87
330
2
100
AcDbEntity
  8
0
  6
DGN Style 1
 62
     7
370
     0
100
AcDbPolyline
 90
       24
 70
   129
 43
0.0
 10
1503942.769999998
 20
4346189.199999999
 10
1503943.779999999
 20
4346188.309999996
 10
1503944.229999999
 20
4346187.229999999
 10
1503944.419999999
 20
4346186.309999997
 10
1503941.969999998
 20
4346181.049999998
 10
1503940.699999998
 20
4346180.589999998
 10
1503939.319999999
 20
4346180.559999996
 10
1503937.899999999
 20
4346181.049999998
 10
1503881.019999999
 20
4346210.549999998
 10
1503853.799999999
 20
4346224.629999997
 10
1503835.959999998
 20
4346233.229999998
 10
1503826.209999998
 20
4346237.219999997
 10
1503816.709999999
 20
4346240.379999999
 10
1503806.479999999
 20
4346243.299999998
 10
1503805.009999998
 20
4346252.339999998
 10
1503808.739999998
 20
4346251.729999998
 10
1503821.859999999
 20
4346248.019999996
 10
1503834.359999998
 20
4346243.769999997
 10
1503846.519999997
 20
4346238.869999997
 10
1503855.049999997
 20
4346235.039999997
 10
1503873.549999998
 20
4346225.279999999
 10
1503886.669999998
 20
4346218.419999998
 10
1503913.309999999
 20
4346204.539999998
 10
1503934.299999999
 20
4346193.679999998
  0
LWPOLYLINE
  5
88
330
2
100
AcDbEntity
  8
0
  6
DGN Style 2
 62
     7
370
    13
100
AcDbPolyline
 90
       20
 70
   128
 43
0.0
 10
1503969.989999999
 20
4346184.299999998
 10
1503955.439999999
 20
4346202.479999998
 10
1503951.079999999
 20
4346208.409999997
 10
1503948.289999999
 20
4346211.069999998
 10
1503946.219999998
 20
4346212.209999997
 10
1503931.619999998
 20
4346218.809999997
 10
1503925.069999999
 20
4346222.269999997
 10
1503918.569999999
 20
4346226.569999998
 10
1503915.539999999
 20
4346230.569999998
 10
1503911.859999999
 20
4346237.129999997
 10
1503910.569999998
 20
4346243.019999997
 10
1503910.909999998
 20
4346249.249999998
 10
1503912.329999998
 20
4346255.109999997
 10
1503913.809999998
 20
4346262.239999998
 10
1503916.579999998
 20
4346270.239999998
 10
1503919.519999998
 20
4346277.299999997
 10
1503920.549999998
 20
4346283.169999998
 10
1503920.069999998
 20
4346285.979999999
 10
1503919.339999999
 20
4346290.269999998
 10
1503917.829999998
 20
4346293.019999997
  0
LWPOLYLINE
  5
8A
330
2
100
AcDbEntity
  8
0
  6
DGN Style 2
 62
     7
370
    13
100
AcDbPolyline
 90
       11
 70
   128
 43
0.0
 10
1503926.329999997
 20
4346287.369999997
 10
1503925.849999999
 20
4346274.139999998
 10
1503925.719999998
 20
4346271.949999997
 10
1503926.339999998
 20
4346270.929999998
 10
1503927.189999998
 20
4346270.709999997
 10
1503928.169999998
 20
4346270.869999997
 10
1503931.249999999
 20
4346272.399999998
 10
1503932.549999998
 20
4346274.549999996
 10
1503933.209999999
 20
4346276.999999998
 10
1503933.279999999
 20
4346280.109999997
 10
1503930.640999998
 20
4346284.501999998
  0
LWPOLYLINE
  5
8B
330
2
100
AcDbEntity
  8
0
  6
Continuous
 62
     7
370
    13
100
AcDbPolyline
 90
       10
 70
   128
 43
0.0
 10
1503800.129999997
 20
4346311.879999997
 10
1503800.579999997
 20
4346312.809999997
 10
1503801.169999997
 20
4346313.699999995
 10
1503840.329999998
 20
4346310.669999997
 10
1503885.109999998
 20
4346306.689999998
 10
1503894.519999998
 20
4346305.859999999
 10
1503896.539999998
 20
4346305.559999997
 10
1503898.229999997
 20
4346305.009999996
 10
1503900.189999998
 20
4346304.139999997
 10
1503917.829999998
 20
4346293.019999997
  0
LWPOLYLINE
  5
8C
330
2
100
AcDbEntity
  8
0
  6
Continuous
 62
     7
370
    13
100
AcDbPolyline
 90
        2
 70
   128
 43
0.0
 10
1503926.329999997
 20
4346287.369999997
 10
1503930.839999999
 20
4346284.369999997
  0
LWPOLYLINE
  5
8D
330
2
100
AcDbEntity
  8
0
  6
DGN Style 4
 62
     7
370
    13
100
AcDbPolyline
 90
        5
 70
   128
 43
0.0
 10
1503793.039999998
 20
4346287.589999998
 10
1503798.159999998
 20
4346285.349999996
 10
1503796.059999998
 20
4346280.549999995
 10
1503790.939999998
 20
4346282.799999996
 10
1503793.039999998
 20
4346287.589999998
  0
LWPOLYLINE
  5
8F
330
2
100
AcDbEntity
  8
0
  6
DGN Style 1
 62
     7
370
     0
100
AcDbPolyline
 90
        8
 70
   129
 43
0.0
 10
1503871.059999999
 20
4346303.889999997
 10
1503859.259999997
 20
4346274.609999997
 10
1503837.899999999
 20
4346279.549999997
 10
1503812.709999997
 20
4346285.949999997
 10
1503813.979999998
 20
4346296.069999998
 10
1503817.389999997
 20
4346295.339999997
 10
1503820.689999998
 20
4346307.479999998
 10
1503834.129999998
 20
4346306.389999997
  0
LWPOLYLINE
  5
90
330
2
100
AcDbEntity
  8
0
  6
DGN Style 1
 62
     7
370
     0
100
AcDbPolyline
 90
        2
 70
   128
 43
0.0
 10
1503858.779999998
 20
4346304.720999997
 10
1503851.238999998
 20
4346276.464999996
  0
LWPOLYLINE
  5
91
330
2
100
AcDbEntity
  8
0
  6
DGN Style 1
 62
     7
370
     0
100
AcDbPolyline
 90
        2
 70
   128
 43
0.0
 10
1503837.899999999
 20
4346279.549999997
 10
1503844.619999998
 20
4346305.679999998
  0
LWPOLYLINE
  5
92
330
2
100
AcDbEntity
  8
0
  6
DGN Style 1
 62
     7
370
     0
100
AcDbPolyline
 90
        4
 70
   128
 43
0.0
 10
1503812.964999998
 20
4346287.980999997
 10
1503793.809999998
 20
4346293.859999997
 10
1503800.159999997
 20
4346309.449999997
 10
1503820.689999998
 20
4346307.479999998
  0
LWPOLYLINE
  5
93
330
2
100
AcDbEntity
  8
0
  6
DGN Style 1
 62
     7
370
     0
100
AcDbPolyline
 90
       30
 70
   129
 43
0.0
 10
1503875.439999998
 20
4346301.559999997
 10
1503876.199999999
 20
4346302.259999998
 10
1503877.239999999
 20
4346302.329999997
 10
1503877.769999998
 20
4346301.809999997
 10
1503878.429999998
 20
4346300.859999998
 10
1503874.909999998
 20
4346286.469999999
 10
1503875.649999999
 20
4346282.459999997
 10
1503876.249999998
 20
4346281.129999996
 10
1503877.289999999
 20
4346278.949999997
 10
1503879.209999999
 20
4346275.159999998
 10
1503888.269999998
 20
4346268.299999997
 10
1503890.939999998
 20
4346267.049999997
 10
1503891.669999998
 20
4346266.649999997
 10
1503892.989999998
 20
4346265.479999997
 10
1503892.869999999
 20
4346264.109999999
 10
1503892.379999998
 20
4346263.249999997
 10
1503891.449999998
 20
4346262.269999996
 10
1503889.879999998
 20
4346262.819999997
 10
1503883.249999998
 20
4346266.859999998
 10
1503879.039999998
 20
4346268.569999998
 10
1503875.569999999
 20
4346271.409999998
 10
1503874.589999998
 20
4346275.919999998
 10
1503874.239999998
 20
4346277.029999997
 10
1503873.329999999
 20
4346279.369999998
 10
1503872.109999999
 20
4346280.359999997
 10
1503870.499999998
 20
4346281.359999998
 10
1503869.089999999
 20
4346282.639999997
 10
1503868.959999999
 20
4346283.399999999
 10
1503869.699999998
 20
4346285.589999998
 10
1503874.679999997
 20
4346296.179999998
  0
LWPOLYLINE
  5
94
330
2
100
AcDbEntity
  8
0
  6
Continuous
 62
     7
370
    40
100
AcDbPolyline
 90
       17
 70
   128
 43
0.0
 10
1503702.659999998
 20
4346281.099999996
 10
1503709.639999998
 20
4346279.069999996
 10
1503717.669999999
 20
4346277.269999998
 10
1503729.199999998
 20
4346275.289999997
 10
1503738.519999998
 20
4346274.409999998
 10
1503766.679999998
 20
4346272.779999996
 10
1503783.939999997
 20
4346271.849999996
 10
1503791.679999998
 20
4346270.969999996
 10
1503798.469999998
 20
4346269.859999997
 10
1503808.029999999
 20
4346267.829999998
 10
1503818.679999998
 20
4346265.079999996
 10
1503827.379999998
 20
4346262.459999998
 10
1503838.259999998
 20
4346258.279999998
 10
1503849.059999998
 20
4346253.089999996
 10
1503864.259999998
 20
4346245.339999996
 10
1503892.569999998
 20
4346230.539999999
 10
1503941.459999999
 20
4346205.269999997
  0
LWPOLYLINE
  5
95
330
2
100
AcDbEntity
  8
0
  6
DGN Style 1
 62
     7
370
     0
100
AcDbPolyline
 90
        8
 70
   128
 43
0.0
 10
1503702.359999998
 20
4346278.549999997
 10
1503705.079999998
 20
4346277.699999996
 10
1503715.319999998
 20
4346275.179999997
 10
1503728.389999998
 20
4346273.039999998
 10
1503728.989999999
 20
4346277.889999996
 10
1503717.449999998
 20
4346279.789999996
 10
1503706.699999998
 20
4346282.419999996
 10
1503702.959999998
 20
4346283.619999997
  0
LWPOLYLINE
  5
96
330
2
100
AcDbEntity
  8
0
  6
DGN Style 2
 62
     7
370
    13
100
AcDbPolyline
 90
        5
 70
   128
 43
0.0
 10
1503934.409999998
 20
4346290.169999997
 10
1503936.709999998
 20
4346294.299999997
 10
1503940.229999997
 20
4346298.999999998
 10
1503943.929999998
 20
4346302.539999997
 10
1503950.399999998
 20
4346308.399999997
  0
LWPOLYLINE
  5
97
330
2
100
AcDbEntity
  8
0
  6
DGN Style 2
 62
     7
370
    13
100
AcDbPolyline
 90
        4
 70
   128
 43
0.0
 10
1503941.638999998
 20
4346308.843999996
 10
1503941.209999998
 20
4346305.459999999
 10
1503940.739999998
 20
4346303.159999997
 10
1503941.039999998
 20
4346300.319999998
  0
LWPOLYLINE
  5
98
330
2
100
AcDbEntity
  8
0
  6
DGN Style 1
 62
     7
370
     0
100
AcDbPolyline
 90
       14
 70
   128
 43
0.0
 10
1503922.217999998
 20
4346354.865999998
 10
1503916.589999998
 20
4346350.999999998
 10
1503916.229999997
 20
4346350.179999998
 10
1503919.989999998
 20
4346341.799999998
 10
1503920.869999998
 20
4346341.039999997
 10
1503922.029999999
 20
4346340.749999998
 10
1503923.639999997
 20
4346341.019999996
 10
1503926.669999998
 20
4346342.699999998
 10
1503929.539999998
 20
4346339.429999998
 10
1503927.619999999
 20
4346336.999999998
 10
1503927.489999998
 20
4346335.819999999
 10
1503927.299999998
 20
4346334.169999998
 10
1503927.739999998
 20
4346332.649999998
 10
1503933.939999998
 20
4346323.339999998
  0
LWPOLYLINE
  5
99
330
2
100
AcDbEntity
  8
0
  6
DGN Style 1
 62
     7
370
     0
100
AcDbPolyline
 90
        7
 70
   128
 43
0.0
 10
1503929.132999997
 20
4346321.829999998
 10
1503924.609999998
 20
4346329.069999998
 10
1503923.329999998
 20
4346329.519999996
 10
1503922.069999998
 20
4346329.269999997
 10
1503900.589999998
 20
4346328.979999999
 10
1503898.959999998
 20
4346329.639999997
 10
1503893.408999998
 20
4346329.445999996
  0
LWPOLYLINE
  5
9A
330
2
100
AcDbEntity
  8
0
  6
DGN Style 1
 62
     7
370
     0
100
AcDbPolyline
 90
        4
 70
   129
 43
0.0
 10
1503912.209999998
 20
4346343.609999998
 10
1503924.349999998
 20
4346332.309999996
 10
1503906.189999997
 20
4346333.259999998
 10
1503905.419999999
 20
4346338.829999998
  0
LWPOLYLINE
  5
9B
330
2
100
AcDbEntity
  8
0
  6
DGN Style 5
 62
     7
370
     0
100
AcDbPolyline
 90
       19
 70
   128
 43
0.0
 10
1503844.059999998
 20
4346428.379999998
 10
1503916.759999998
 20
4346362.929999997
 10
1503939.779999998
 20
4346342.109999999
 10
1503945.229999998
 20
4346326.589999998
 10
1503945.299999998
 20
4346325.959999999
 10
1503944.929999997
 20
4346325.629999997
 10
1503944.329999998
 20
4346325.319999998
 10
1503909.789999998
 20
4346315.199999997
 10
1503902.059999998
 20
4346313.789999997
 10
1503896.759999998
 20
4346313.089999997
 10
1503890.719999998
 20
4346313.419999998
 10
1503863.909999998
 20
4346315.639999996
 10
1503827.939999998
 20
4346318.499999997
 10
1503801.599999998
 20
4346320.909999998
 10
1503796.489999998
 20
4346321.629999997
 10
1503791.809999998
 20
4346322.789999997
 10
1503787.089999998
 20
4346323.879999997
 10
1503782.489999998
 20
4346325.299999997
 10
1503770.089999998
 20
4346330.319999997
  0
LWPOLYLINE
  5
9D
330
2
100
AcDbEntity
  8
0
  6
DGN Style 1
 62
     7
370
     0
100
AcDbPolyline
 90
        4
 70
   129
 43
0.0
 10
1503814.979999997
 20
4346370.449999997
 10
1503843.659999998
 20
4346344.319999999
 10
1503830.979999998
 20
4346330.399999997
 10
1503802.289999998
 20
4346356.519999997
  0
LWPOLYLINE
  5
9E
330
2
100
AcDbEntity
  8
0
  6
Continuous
 62
     7
370
    13
100
AcDbPolyline
 90
        8
 70
   128
 43
0.0
 10
1503988.599999998
 20
4346366.449999997
 10
1503968.629999998
 20
4346340.949999998
 10
1503966.869999998
 20
4346339.889999996
 10
1503965.309999998
 20
4346339.269999997
 10
1503964.109999998
 20
4346339.139999997
 10
1503962.879999998
 20
4346339.149999998
 10
1503961.409999998
 20
4346339.539999997
 10
1503946.909999998
 20
4346352.319999998
  0
LWPOLYLINE
  5
9F
330
2
100
AcDbEntity
  8
0
  6
DGN Style 5
 62
     7
370
     0
100
AcDbPolyline
 90
        6
 70
   128
 43
0.0
 10
1503932.539999998
 20
4346449.489999998
 10
1503930.089999998
 20
4346451.209999997
 10
1503929.509999997
 20
4346452.409999998
 10
1503929.649999997
 20
4346453.519999998
 10
1503930.029999998
 20
4346454.399999998
 10
1503936.369999998
 20
4346462.049999997
  0
LWPOLYLINE
  5
A0
330
2
100
AcDbEntity
  8
0
  6
DGN Style 5
 62
     7
370
     0
100
AcDbPolyline
 90
        4
 70
   128
 43
0.0
 10
1503936.369999998
 20
4346462.049999997
 10
1503938.319999998
 20
4346461.629999997
 10
1503945.219999996
 20
4346469.459999998
 10
1503945.279999998
 20
4346471.839999998
  0
LWPOLYLINE
  5
A1
330
2
100
AcDbEntity
  8
0
  6
DGN Style 5
 62
     7
370
     0
100
AcDbPolyline
 90
        9
 70
   128
 43
0.0
 10
1503973.729999997
 20
4346488.429999998
 10
1503959.749999997
 20
4346509.039999997
 10
1503958.759999997
 20
4346509.639999998
 10
1503957.959999997
 20
4346509.639999998
 10
1503957.019999997
 20
4346509.479999999
 10
1503948.359999997
 20
4346507.459999997
 10
1503947.459999997
 20
4346507.499999998
 10
1503947.069999998
 20
4346507.869999997
 10
1503945.919999996
 20
4346511.889999996
  0
LWPOLYLINE
  5
A2
330
2
100
AcDbEntity
  8
0
  6
DGN Style 5
 62
     7
370
     0
100
AcDbPolyline
 90
        5
 70
   128
 43
0.0
 10
1503921.19717569
 20
4346478.787323881
 10
1503930.289999998
 20
4346479.709999997
 10
1503934.989999997
 20
4346478.569999998
 10
1503942.679999997
 20
4346472.589999997
 10
1503943.659999997
 20
4346472.549999999
  0
LWPOLYLINE
  5
A3
330
2
100
AcDbEntity
  8
0
  6
DGN Style 5
 62
     7
370
     0
100
AcDbPolyline
 90
        5
 70
   128
 43
0.0
 10
1503934.519999998
 20
4346462.589999998
 10
1503934.209999997
 20
4346463.819999997
 10
1503927.749999997
 20
4346469.119999997
 10
1503923.259999997
 20
4346477.089999997
 10
1503917.336249164
 20
4346481.964154202
  0
LWPOLYLINE
  5
A4
330
2
100
AcDbEntity
  8
0
  6
DGN Style 5
 62
     7
370
     0
100
AcDbPolyline
 90
        3
 70
   128
 43
0.0
 10
1503957.029999997
 20
4346472.429999998
 10
1503958.499999998
 20
4346466.659999999
 10
1503961.559999997
 20
4346457.789999999
  0
LWPOLYLINE
  5
A5
330
2
100
AcDbEntity
  8
0
  6
DGN Style 5
 62
     7
370
     0
100
AcDbPolyline
 90
        3
 70
   128
 43
0.0
 10
1503892.779999998
 20
4346401.409999997
 10
1503896.189999997
 20
4346405.159999998
 10
1503896.349999997
 20
4346405.619999997
  0
LWPOLYLINE
  5
A6
330
2
100
AcDbEntity
  8
0
  6
DGN Style 5
 62
     7
370
     0
100
AcDbPolyline
 90
        2
 70
   128
 43
0.0
 10
1503932.539999998
 20
4346449.489999998
 10
1503948.979999998
 20
4346437.799999999
  0
LWPOLYLINE
  5
A7
330
2
100
AcDbEntity
  8
0
  6
DGN Style 5
 62
     7
370
     0
100
AcDbPolyline
 90
        3
 70
   128
 43
0.0
 10
1503920.109999998
 20
4346429.319999998
 10
1503920.259999997
 20
4346428.549999997
 10
1503926.249999998
 20
4346415.859999997
  0
LWPOLYLINE
  5
A8
330
2
100
AcDbEntity
  8
0
  6
DGN Style 5
 62
     7
370
     0
100
AcDbPolyline
 90
       14
 70
   128
 43
0.0
 10
1503942.309999998
 20
4346505.95
 10
1503937.349999998
 20
4346505.189999998
 10
1503935.259999997
 20
4346505.329999998
 10
1503931.929999998
 20
4346505.979999998
 10
1503929.859999998
 20
4346505.909999998
 10
1503928.259999996
 20
4346505.209999997
 10
1503926.889999997
 20
4346504.189999997
 10
1503925.959999997
 20
4346502.889999997
 10
1503924.979999998
 20
4346496.589999998
 10
1503924.889999997
 20
4346495.939999997
 10
1503924.619999998
 20
4346495.109999998
 10
1503921.599999998
 20
4346488.469999998
 10
1503919.199999997
 20
4346484.519999996
 10
1503918.139999996
 20
4346482.819999998
  0
LWPOLYLINE
  5
A9
330
2
100
AcDbEntity
  8
0
  6
DGN Style 5
 62
     7
370
     0
100
AcDbPolyline
 90
       13
 70
   128
 43
0.0
 10
1503918.139999996
 20
4346482.819999998
 10
1503917.059999997
 20
4346481.669999998
 10
1503910.839999997
 20
4346475.019999996
 10
1503909.749999998
 20
4346474.149999998
 10
1503909.149999998
 20
4346473.739999998
 10
1503908.159999997
 20
4346473.429999999
 10
1503897.629999997
 20
4346469.319999996
 10
1503896.329999997
 20
4346467.679999997
 10
1503895.419999998
 20
4346466.549999998
 10
1503894.799999996
 20
4346465.339999996
 10
1503894.289999998
 20
4346463.819999997
 10
1503893.789999997
 20
4346458.289999998
 10
1503893.979999997
 20
4346453.889999996
  0
LWPOLYLINE
  5
AA
330
2
100
AcDbEntity
  8
0
  6
DGN Style 5
 62
     7
370
     0
100
AcDbPolyline
 90
        4
 70
   128
 43
0.0
 10
1503868.409999997
 20
4346423.339999998
 10
1503892.619999998
 20
4346451.939999997
 10
1503893.669999997
 20
4346453.019999996
 10
1503893.979999997
 20
4346453.889999996
  0
LWPOLYLINE
  5
AB
330
2
100
AcDbEntity
  8
0
  6
DGN Style 5
 62
     7
370
     0
100
AcDbPolyline
 90
       19
 70
   128
 43
0.0
 10
1503894.559999998
 20
4346450.589999998
 10
1503894.819999998
 20
4346450.249999997
 10
1503897.309999998
 20
4346442.159999998
 10
1503897.599999997
 20
4346441.389999997
 10
1503897.849999997
 20
4346439.709999997
 10
1503898.429999997
 20
4346431.269999997
 10
1503898.349999997
 20
4346429.519999997
 10
1503898.209999997
 20
4346428.959999997
 10
1503897.889999997
 20
4346427.839999996
 10
1503897.209999998
 20
4346426.379999997
 10
1503896.149999998
 20
4346424.529999999
 10
1503895.129999998
 20
4346422.349999996
 10
1503894.339999998
 20
4346419.599999997
 10
1503894.029999997
 20
4346416.629999997
 10
1503894.079999998
 20
4346413.699999999
 10
1503894.479999997
 20
4346410.859999999
 10
1503895.349999997
 20
4346408.349999998
 10
1503895.989999997
 20
4346406.579999996
 10
1503896.349999997
 20
4346405.619999997
  0
LWPOLYLINE
  5
AC
330
2
100
AcDbEntity
  8
0
  6
DGN Style 5
 62
     7
370
     0
100
AcDbPolyline
 90
        6
 70
   128
 43
0.0
 10
1503944.139999996
 20
4346511.589999998
 10
1503944.699999998
 20
4346509.659999998
 10
1503944.909999998
 20
4346508.269999997
 10
1503944.879999997
 20
4346507.159999998
 10
1503943.939999998
 20
4346506.549999999
 10
1503942.309999998
 20
4346505.95
  0
LWPOLYLINE
  5
AD
330
2
100
AcDbEntity
  8
0
  6
DGN Style 5
 62
     7
370
     0
100
AcDbPolyline
 90
       10
 70
   128
 43
0.0
 10
1503924.179999997
 20
4346393.949999997
 10
1503925.679999997
 20
4346393.159999998
 10
1503919.239999998
 20
4346381.629999997
 10
1503918.049999998
 20
4346380.519999996
 10
1503916.429999997
 20
4346379.729999998
 10
1503915.219999998
 20
4346379.409999998
 10
1503913.899999997
 20
4346379.589999997
 10
1503912.609999998
 20
4346380.299999997
 10
1503885.479999998
 20
4346404.619999999
 10
1503851.509999997
 20
4346435.249999997
  0
LWPOLYLINE
  5
AE
330
2
100
AcDbEntity
  8
0
  6
Continuous
 62
     7
370
    13
100
AcDbPolyline
 90
       13
 70
   128
 43
0.0
 10
1503780.039999997
 20
4346499.599999997
 10
1503781.139999996
 20
4346498.689999997
 10
1503782.249999997
 20
4346498.139999996
 10
1503783.019999997
 20
4346497.909999998
 10
1503799.089999997
 20
4346517.639999997
 10
1503822.909999997
 20
4346546.949999997
 10
1503849.219999997
 20
4346578.789999997
 10
1503853.269999998
 20
4346583.549999997
 10
1503855.009999997
 20
4346585.229999996
 10
1503857.039999996
 20
4346586.799999997
 10
1503859.369999997
 20
4346587.949999998
 10
1503862.549999997
 20
4346588.409999998
 10
1503866.622999997
 20
4346588.563999997
  0
LWPOLYLINE
  5
AF
330
2
100
AcDbEntity
  8
0
  6
DGN Style 1
 62
     7
370
     0
100
AcDbPolyline
 90
        4
 70
   129
 43
0.0
 10
1503826.859999998
 20
4346488.479999996
 10
1503846.219999997
 20
4346472.859999997
 10
1503836.959999997
 20
4346461.389999997
 10
1503817.599999997
 20
4346477.009999996
  0
LWPOLYLINE
  5
B0
330
2
100
AcDbEntity
  8
0
  6
DGN Style 5
 62
     7
370
     0
100
AcDbPolyline
 90
        8
 70
   128
 43
0.0
 10
1503911.189999996
 20
4346535.009999995
 10
1503909.669999997
 20
4346533.429999996
 10
1503923.209999998
 20
4346522.079999998
 10
1503907.849999997
 20
4346503.229999998
 10
1503903.269999997
 20
4346507.069999996
 10
1503900.209999997
 20
4346503.409999996
 10
1503904.819999998
 20
4346499.479999998
 10
1503853.416999998
 20
4346436.736999997
  0
LWPOLYLINE
  5
B1
330
2
100
AcDbEntity
  8
0
  6
DGN Style 5
 62
     7
370
     0
100
AcDbPolyline
 90
        2
 70
   128
 43
0.0
 10
1503887.621999997
 20
4346487.672999997
 10
1503885.749999997
 20
4346489.189999998
  0
LWPOLYLINE
  5
B2
330
2
100
AcDbEntity
  8
0
  6
DGN Style 5
 62
     7
370
     0
100
AcDbPolyline
 90
       16
 70
   128
 43
0.0
 10
1503851.509999997
 20
4346435.249999997
 10
1503798.339999998
 20
4346483.549999999
 10
1503797.449999997
 20
4346485.259999998
 10
1503797.169999996
 20
4346487.179999997
 10
1503797.499999997
 20
4346489.209999997
 10
1503798.019999997
 20
4346490.899999999
 10
1503798.709999998
 20
4346492.199999998
 10
1503802.679999997
 20
4346496.409999996
 10
1503849.709999997
 20
4346554.329999998
 10
1503862.839999996
 20
4346570.539999997
 10
1503864.049999997
 20
4346571.429999998
 10
1503864.879999997
 20
4346571.609999998
 10
1503865.709999997
 20
4346571.559999997
 10
1503867.159999997
 20
4346570.839999998
 10
1503879.569999997
 20
4346561.889999996
 10
1503931.039999997
 20
4346524.669999998
  0
LWPOLYLINE
  5
B3
330
2
100
AcDbEntity
  8
0
  6
Continuous
 62
     7
370
    40
100
AcDbPolyline
 90
        5
 70
   128
 43
0.0
 10
1503665.289999998
 20
4346296.329999996
 10
1503679.719999998
 20
4346289.729999996
 10
1503688.599999998
 20
4346285.909999997
 10
1503697.129999998
 20
4346282.699999997
 10
1503702.659999998
 20
4346281.099999996
  0
LWPOLYLINE
  5
B4
330
2
100
AcDbEntity
  8
0
  6
Continuous
 62
     7
370
    40
100
AcDbPolyline
 90
        3
 70
   128
 43
0.0
 10
1503700.059999998
 20
4346266.449999998
 10
1503684.329999998
 20
4346275.199999995
 10
1503660.129999998
 20
4346287.859999997
  0
LWPOLYLINE
  5
B5
330
2
100
AcDbEntity
  8
0
  6
Continuous
 62
     7
370
    40
100
AcDbPolyline
 90
        5
 70
   128
 43
0.0
 10
1503617.549999998
 20
4346305.299999997
 10
1503639.699999998
 20
4346289.639999997
 10
1503659.699999998
 20
4346276.659999996
 10
1503686.899999998
 20
4346259.899999997
 10
1503699.209999999
 20
4346251.839999996
  0
LWPOLYLINE
  5
B6
330
2
100
AcDbEntity
  8
0
  6
Continuous
 62
     7
370
    40
100
AcDbPolyline
 90
        3
 70
   128
 43
0.0
 10
1503692.779999999
 20
4346256.049999997
 10
1503677.649999998
 20
4346267.859999996
 10
1503656.749999999
 20
4346284.639999997
  0
LWPOLYLINE
  5
B7
330
2
100
AcDbEntity
  8
0
  6
Continuous
 62
     7
370
    40
100
AcDbPolyline
 90
        5
 70
   128
 43
0.0
 10
1503700.869999999
 20
4346265.929999995
 10
1503699.309999999
 20
4346266.939999997
 10
1503677.759999997
 20
4346281.789999995
 10
1503665.529999998
 20
4346289.769999996
 10
1503655.079999998
 20
4346296.079999996
  0
LWPOLYLINE
  5
B8
330
2
100
AcDbEntity
  8
0
  6
Continuous
 62
     7
370
    40
100
AcDbPolyline
 90
        5
 70
   128
 43
0.0
 10
1503701.649999998
 20
4346272.509999998
 10
1503690.279999998
 20
4346280.199999998
 10
1503667.259999998
 20
4346295.209999997
 10
1503657.019999997
 20
4346301.039999995
 10
1503629.989999998
 20
4346314.549999997
  0
LWPOLYLINE
  5
B9
330
2
100
AcDbEntity
  8
0
  6
Continuous
 62
     7
370
    40
100
AcDbPolyline
 90
        2
 70
   128
 43
0.0
 10
1503701.689999999
 20
4346272.869999997
 10
1503700.469999999
 20
4346273.309999997
  0
LWPOLYLINE
  5
BA
330
2
100
AcDbEntity
  8
0
  6
Continuous
 62
     7
370
    40
100
AcDbPolyline
 90
        5
 70
   128
 43
0.0
 10
1503700.369999998
 20
4346261.649999997
 10
1503685.399999998
 20
4346271.319999996
 10
1503662.809999998
 20
4346286.109999996
 10
1503644.819999998
 20
4346297.839999996
 10
1503628.579999998
 20
4346308.499999996
  0
LWPOLYLINE
  5
BB
330
2
100
AcDbEntity
  8
0
  6
Continuous
 62
     7
370
    40
100
AcDbPolyline
 90
        5
 70
   128
 43
0.0
 10
1503699.759999998
 20
4346256.479999998
 10
1503697.139999997
 20
4346258.199999997
 10
1503670.619999999
 20
4346275.529999997
 10
1503645.739999998
 20
4346291.849999998
 10
1503625.359999998
 20
4346305.169999996
  0
LWPOLYLINE
  5
BC
330
2
100
AcDbEntity
  8
0
  6
DGN Style 1
 62
     7
370
     0
100
AcDbPolyline
 90
        3
 70
   128
 43
0.0
 10
1503702.159999998
 20
4346276.879999997
 10
1503694.169999998
 20
4346281.109999997
 10
1503702.359999998
 20
4346278.549999997
  0
LWPOLYLINE
  5
BD
330
2
100
AcDbEntity
  8
0
  6
DGN Style 1
 62
     7
370
     0
100
AcDbPolyline
 90
        8
 70
   128
 43
0.0
 10
1503702.959999998
 20
4346283.619999997
 10
1503692.449999998
 20
4346286.999999998
 10
1503680.549999999
 20
4346292.179999996
 10
1503670.919999998
 20
4346296.909999996
 10
1503650.029999998
 20
4346307.139999995
 10
1503633.519999998
 20
4346315.019999996
 10
1503618.579999998
 20
4346323.729999997
 10
1503620.519999998
 20
4346327.089999996
  0
LWPOLYLINE
  5
BE
330
2
100
AcDbEntity
  8
0
  6
Continuous
 62
     7
370
    13
100
AcDbPolyline
 90
       10
 70
   128
 43
0.0
 10
1503574.159999998
 20
4346331.479999996
 10
1503593.149999998
 20
4346339.729999997
 10
1503608.029999998
 20
4346346.159999996
 10
1503631.029999998
 20
4346356.149999997
 10
1503654.079999998
 20
4346365.979999997
 10
1503668.989999998
 20
4346372.339999996
 10
1503680.089999997
 20
4346376.869999997
 10
1503682.729999998
 20
4346377.709999997
 10
1503685.619999998
 20
4346378.179999996
 10
1503688.099999997
 20
4346378.639999996
  0
LWPOLYLINE
  5
BF
330
2
100
AcDbEntity
  8
0
  6
DGN Style 5
 62
     7
370
     0
100
AcDbPolyline
 90
       11
 70
   128
 43
0.0
 10
1503770.089999998
 20
4346330.319999997
 10
1503761.139999997
 20
4346334.449999997
 10
1503735.289999998
 20
4346352.819999999
 10
1503709.059999997
 20
4346372.199999997
 10
1503705.849999999
 20
4346374.369999997
 10
1503702.749999998
 20
4346376.039999997
 10
1503700.109999998
 20
4346377.079999999
 10
1503697.669999997
 20
4346377.979999997
 10
1503694.939999997
 20
4346378.519999996
 10
1503692.169999998
 20
4346378.699999997
 10
1503692.279999997
 20
4346380.419999996
  0
LWPOLYLINE
  5
C0
330
2
100
AcDbEntity
  8
0
  6
DGN Style 1
 62
     7
370
     0
100
AcDbPolyline
 90
       33
 70
   129
 43
0.0
 10
1503841.339999999
 20
4346407.429999998
 10
1503842.589999998
 20
4346405.689999998
 10
1503843.899999998
 20
4346402.029999997
 10
1503844.059999998
 20
4346400.159999998
 10
1503843.899999998
 20
4346398.109999998
 10
1503843.279999997
 20
4346396.089999996
 10
1503842.339999998
 20
4346393.989999996
 10
1503841.139999997
 20
4346392.219999997
 10
1503839.339999998
 20
4346390.379999997
 10
1503835.929999998
 20
4346388.749999998
 10
1503833.989999998
 20
4346388.349999996
 10
1503831.809999998
 20
4346388.179999997
 10
1503829.809999998
 20
4346388.359999997
 10
1503827.489999998
 20
4346388.929999997
 10
1503825.499999998
 20
4346390.509999997
 10
1503824.339999998
 20
4346391.339999995
 10
1503786.659999997
 20
4346425.319999998
 10
1503785.039999997
 20
4346427.529999997
 10
1503784.309999997
 20
4346429.559999997
 10
1503783.739999997
 20
4346431.589999996
 10
1503783.689999997
 20
4346433.549999996
 10
1503783.819999998
 20
4346435.479999999
 10
1503784.479999997
 20
4346437.229999998
 10
1503785.399999998
 20
4346439.049999997
 10
1503786.379999998
 20
4346440.819999998
 10
1503787.749999998
 20
4346442.289999997
 10
1503789.669999998
 20
4346443.529999997
 10
1503791.609999997
 20
4346444.369999996
 10
1503793.529999997
 20
4346444.709999996
 10
1503795.449999997
 20
4346444.709999997
 10
1503797.899999998
 20
4346444.429999998
 10
1503799.629999997
 20
4346443.979999998
 10
1503801.639999997
 20
4346443.019999997
  0
LWPOLYLINE
  5
C1
330
2
100
AcDbEntity
  8
0
  6
DGN Style 5
 62
     7
370
     0
100
AcDbPolyline
 90
        4
 70
   128
 43
0.0
 10
1503843.519999998
 20
4346428.829999998
 10
1503801.979999998
 20
4346466.319999997
 10
1503788.179999997
 20
4346478.689999997
 10
1503786.789999997
 20
4346477.289999997
  0
LWPOLYLINE
  5
C2
330
2
100
AcDbEntity
  8
0
  6
DGN Style 5
 62
     7
370
     0
100
AcDbPolyline
 90
       13
 70
   128
 43
0.0
 10
1503790.354999998
 20
4346353.262999998
 10
1503783.149999998
 20
4346345.459999997
 10
1503782.949999998
 20
4346344.959999997
 10
1503782.989999997
 20
4346344.479999997
 10
1503783.199999997
 20
4346344.099999996
 10
1503786.919999998
 20
4346340.949999997
 10
1503787.189999997
 20
4346340.559999997
 10
1503787.129999998
 20
4346340.089999998
 10
1503783.839999998
 20
4346335.609999997
 10
1503784.379999998
 20
4346334.049999996
 10
1503790.499999998
 20
4346331.659999997
 10
1503789.029999998
 20
4346327.679999998
 10
1503782.119999998
 20
4346330.309999996
  0
LWPOLYLINE
  5
C3
330
2
100
AcDbEntity
  8
0
  6
DGN Style 5
 62
     7
370
     0
100
AcDbPolyline
 90
        3
 70
   128
 43
0.0
 10
1503777.219999998
 20
4346336.559999996
 10
1503775.879999998
 20
4346336.949999997
 10
1503771.419999998
 20
4346332.549999997
  0
LWPOLYLINE
  5
C4
330
2
100
AcDbEntity
  8
0
  6
DGN Style 5
 62
     7
370
     0
100
AcDbPolyline
 90
       13
 70
   128
 43
0.0
 10
1503767.729999998
 20
4346334.359999998
 10
1503775.799999998
 20
4346343.499999997
 10
1503776.189999998
 20
4346344.409999998
 10
1503776.159999997
 20
4346345.299999996
 10
1503775.979999997
 20
4346346.389999997
 10
1503775.619999998
 20
4346347.499999996
 10
1503775.119999999
 20
4346348.279999997
 10
1503741.869999998
 20
4346378.129999997
 10
1503741.119999998
 20
4346378.139999997
 10
1503739.869999998
 20
4346377.999999998
 10
1503738.899999998
 20
4346377.609999999
 10
1503737.459999998
 20
4346376.909999996
 10
1503724.589999999
 20
4346364.139999997
  0
LWPOLYLINE
  5
C5
330
2
100
AcDbEntity
  8
0
  6
DGN Style 5
 62
     7
370
     0
100
AcDbPolyline
 90
        7
 70
   128
 43
0.0
 10
1503721.230999997
 20
4346366.571999997
 10
1503770.759999998
 20
4346421.159999996
 10
1503771.089999998
 20
4346422.139999996
 10
1503771.039999997
 20
4346423.099999998
 10
1503770.559999998
 20
4346423.909999996
 10
1503762.349999998
 20
4346431.389999997
 10
1503797.500999997
 20
4346467.200999997
  0
LWPOLYLINE
  5
C6
330
2
100
AcDbEntity
  8
0
  6
Continuous
 62
     7
370
    13
100
AcDbPolyline
 90
        2
 70
   128
 43
0.0
 10
1503788.179999997
 20
4346478.689999997
 10
1503777.439999997
 20
4346488.179999996
  0
LWPOLYLINE
  5
C7
330
2
100
AcDbEntity
  8
0
  6
Continuous
 62
     7
370
     0
100
AcDbPolyline
 90
        8
 70
   129
 43
0.0
 10
1503788.249999997
 20
4346408.479999997
 10
1503797.209999998
 20
4346400.459999997
 10
1503795.909999998
 20
4346399.009999998
 10
1503798.499999998
 20
4346396.699999997
 10
1503799.799999996
 20
4346398.149999997
 10
1503808.599999997
 20
4346390.289999997
 10
1503803.269999997
 20
4346384.319999997
 10
1503782.899999998
 20
4346402.499999998
  0
LWPOLYLINE
  5
C8
330
2
100
AcDbEntity
  8
0
  6
Continuous
 62
     7
370
     0
100
AcDbPolyline
 90
        2
 70
   128
 43
0.0
 10
1503786.210999997
 20
4346406.200999997
 10
1503806.570999997
 20
4346388.020999998
  0
LWPOLYLINE
  5
C9
330
2
100
AcDbEntity
  8
0
  6
DGN Style 2
 62
     7
370
    13
100
AcDbPolyline
 90
       11
 70
   128
 43
0.0
 10
1503719.649999998
 20
4346355.359999997
 10
1503717.179999999
 20
4346351.549999996
 10
1503715.099999998
 20
4346348.909999998
 10
1503714.059999998
 20
4346347.229999996
 10
1503715.289999999
 20
4346344.109999997
 10
1503721.179999997
 20
4346336.329999996
 10
1503732.159999998
 20
4346324.999999997
 10
1503744.089999998
 20
4346313.449999997
 10
1503745.189999998
 20
4346313.089999997
 10
1503746.239999999
 20
4346312.679999996
 10
1503760.979999997
 20
4346306.449999998
  0
LWPOLYLINE
  5
CA
330
2
100
AcDbEntity
  8
0
  6
DGN Style 2
 62
     7
370
    13
100
AcDbPolyline
 90
       12
 70
   128
 43
0.0
 10
1503713.669999998
 20
4346347.769999998
 10
1503709.639999997
 20
4346347.569999997
 10
1503706.029999998
 20
4346349.409999996
 10
1503703.539999998
 20
4346351.429999996
 10
1503702.089999999
 20
4346351.419999996
 10
1503700.609999998
 20
4346349.239999996
 10
1503698.309999997
 20
4346347.709999997
 10
1503693.769999998
 20
4346346.659999996
 10
1503691.759999997
 20
4346346.909999996
 10
1503688.559999998
 20
4346349.239999996
 10
1503687.379999997
 20
4346350.409999996
 10
1503682.349999998
 20
4346356.609999998
  0
LWPOLYLINE
  5
CB
330
2
100
AcDbEntity
  8
0
  6
DGN Style 2
 62
     7
370
    13
100
AcDbPolyline
 90
       18
 70
   128
 43
0.0
 10
1503690.669999998
 20
4346371.819999998
 10
1503686.209999998
 20
4346368.589999996
 10
1503682.559999998
 20
4346367.319999997
 10
1503675.769999998
 20
4346362.749999996
 10
1503671.399999998
 20
4346360.569999996
 10
1503662.909999998
 20
4346354.319999996
 10
1503651.789999998
 20
4346345.749999996
 10
1503647.849999998
 20
4346341.769999997
 10
1503647.039999998
 20
4346340.469999997
 10
1503645.869999998
 20
4346339.919999997
 10
1503643.299999999
 20
4346338.609999998
 10
1503641.679999998
 20
4346337.419999996
 10
1503639.769999998
 20
4346335.819999997
 10
1503638.089999997
 20
4346334.609999997
 10
1503636.199999998
 20
4346332.499999996
 10
1503634.199999998
 20
4346330.819999996
 10
1503632.679999998
 20
4346328.929999997
 10
1503629.489999998
 20
4346324.369999997
  0
LWPOLYLINE
  5
CC
330
2
100
AcDbEntity
  8
0
  6
DGN Style 4
 62
     7
370
    13
100
AcDbPolyline
 90
        5
 70
   128
 43
0.0
 10
1503736.859999997
 20
4346521.339999996
 10
1503733.259999997
 20
4346517.039999997
 10
1503729.999999997
 20
4346519.759999996
 10
1503733.599999997
 20
4346524.069999999
 10
1503736.859999997
 20
4346521.339999996
  0
LWPOLYLINE
  5
CD
330
2
100
AcDbEntity
  8
0
  6
DGN Style 2
 62
     7
370
    13
100
AcDbPolyline
 90
       24
 70
   128
 43
0.0
 10
1503692.279999997
 20
4346380.419999996
 10
1503692.459999998
 20
4346383.359999997
 10
1503697.159999997
 20
4346395.789999997
 10
1503698.989999998
 20
4346400.039999998
 10
1503700.279999997
 20
4346401.979999996
 10
1503702.309999998
 20
4346404.179999997
 10
1503705.009999997
 20
4346407.259999998
 10
1503707.179999997
 20
4346409.219999997
 10
1503711.329999997
 20
4346412.189999997
 10
1503719.809999998
 20
4346417.589999997
 10
1503725.159999997
 20
4346421.629999997
 10
1503729.829999998
 20
4346426.239999998
 10
1503734.829999997
 20
4346432.429999996
 10
1503739.629999997
 20
4346438.819999996
 10
1503748.199999997
 20
4346450.439999997
 10
1503754.649999998
 20
4346459.529999997
 10
1503761.909999998
 20
4346467.889999997
 10
1503765.139999997
 20
4346473.089999998
 10
1503768.259999997
 20
4346478.079999996
 10
1503770.589999998
 20
4346481.069999996
 10
1503772.429999997
 20
4346483.519999996
 10
1503773.669999997
 20
4346485.109999997
 10
1503775.629999997
 20
4346487.119999998
 10
1503777.439999997
 20
4346488.179999996
  0
LWPOLYLINE
  5
CE
330
2
100
AcDbEntity
  8
0
  6
DGN Style 2
 62
     7
370
    13
100
AcDbPolyline
 90
       48
 70
   129
 43
0.0
 10
1503639.019999997
 20
4346460.529999998
 10
1503634.699999997
 20
4346457.289999997
 10
1503632.729999998
 20
4346456.109999997
 10
1503630.929999997
 20
4346455.299999997
 10
1503631.069999997
 20
4346456.179999996
 10
1503632.839999998
 20
4346459.549999997
 10
1503636.319999998
 20
4346465.639999997
 10
1503640.059999997
 20
4346471.479999997
 10
1503644.639999997
 20
4346477.359999997
 10
1503649.689999997
 20
4346484.239999997
 10
1503655.689999997
 20
4346491.889999996
 10
1503661.749999996
 20
4346500.539999995
 10
1503666.949999997
 20
4346508.799999997
 10
1503671.859999997
 20
4346516.709999995
 10
1503675.159999997
 20
4346522.769999996
 10
1503676.959999997
 20
4346526.699999995
 10
1503677.489999997
 20
4346529.019999995
 10
1503678.529999997
 20
4346532.909999996
 10
1503679.889999997
 20
4346536.889999996
 10
1503681.699999996
 20
4346540.609999998
 10
1503683.489999998
 20
4346544.089999996
 10
1503685.399999997
 20
4346546.899999997
 10
1503690.009999997
 20
4346552.319999998
 10
1503694.079999997
 20
4346557.509999995
 10
1503695.499999997
 20
4346559.539999997
 10
1503696.439999997
 20
4346561.029999997
 10
1503697.069999997
 20
4346561.569999997
 10
1503697.609999997
 20
4346561.299999997
 10
1503698.429999996
 20
4346560.589999996
 10
1503701.069999997
 20
4346556.569999997
 10
1503706.149999997
 20
4346550.429999996
 10
1503711.209999997
 20
4346544.119999997
 10
1503713.599999996
 20
4346540.519999996
 10
1503714.769999997
 20
4346538.109999996
 10
1503715.329999997
 20
4346535.529999996
 10
1503715.119999997
 20
4346533.159999997
 10
1503714.669999998
 20
4346531.399999998
 10
1503713.469999997
 20
4346529.459999997
 10
1503711.309999997
 20
4346526.699999997
 10
1503702.779999997
 20
4346519.179999996
 10
1503696.249999998
 20
4346513.179999996
 10
1503688.039999997
 20
4346505.589999996
 10
1503680.209999998
 20
4346497.449999997
 10
1503671.469999997
 20
4346489.129999995
 10
1503662.089999997
 20
4346480.269999997
 10
1503655.289999998
 20
4346473.599999998
 10
1503648.849999998
 20
4346468.499999998
 10
1503641.619999998
 20
4346462.659999998
  0
LWPOLYLINE
  5
CF
330
2
100
AcDbEntity
  8
0
  6
DGN Style 4
 62
     7
370
    13
100
AcDbPolyline
 90
        5
 70
   128
 43
0.0
 10
1503633.719999998
 20
4346393.269999995
 10
1503626.309999998
 20
4346386.469999997
 10
1503631.589999997
 20
4346381.889999997
 10
1503640.779999998
 20
4346389.559999997
 10
1503638.209999998
 20
4346392.339999996
  0
LWPOLYLINE
  5
D0
330
2
100
AcDbEntity
  8
0
  6
DGN Style 4
 62
     7
370
    13
100
AcDbPolyline
 90
        5
 70
   128
 43
0.0
 10
1503643.129999998
 20
4346415.319999995
 10
1503648.709999998
 20
4346409.069999997
 10
1503645.759999997
 20
4346406.859999998
 10
1503640.539999998
 20
4346413.019999996
 10
1503643.129999998
 20
4346415.319999995
  0
LWPOLYLINE
  5
D1
330
2
100
AcDbEntity
  8
0
  6
Continuous
 62
     7
370
    13
100
AcDbPolyline
 90
        8
 70
   128
 43
0.0
 10
1503692.279999997
 20
4346380.419999996
 10
1503695.169999998
 20
4346380.229999996
 10
1503698.139999997
 20
4346379.649999996
 10
1503700.729999998
 20
4346378.689999998
 10
1503703.479999999
 20
4346377.609999997
 10
1503706.739999998
 20
4346375.849999995
 10
1503710.059999998
 20
4346373.609999997
 10
1503710.749999998
 20
4346374.359999997
  0
LWPOLYLINE
  5
D2
330
2
100
AcDbEntity
  8
0
  6
DGN Style 2
 62
     7
370
    13
100
AcDbPolyline
 90
       15
 70
   128
 43
0.0
 10
1503767.619999997
 20
4346505.839999996
 10
1503762.219999997
 20
4346509.839999996
 10
1503759.419999997
 20
4346510.549999996
 10
1503756.109999997
 20
4346510.889999997
 10
1503753.249999997
 20
4346511.839999997
 10
1503750.959999997
 20
4346513.069999996
 10
1503746.979999997
 20
4346517.229999998
 10
1503742.889999998
 20
4346520.979999998
 10
1503737.609999997
 20
4346524.429999996
 10
1503733.709999997
 20
4346525.949999997
 10
1503728.289999997
 20
4346527.639999997
 10
1503724.849999997
 20
4346528.769999998
 10
1503722.419999997
 20
4346529.479999999
 10
1503720.299999996
 20
4346531.229999997
 10
1503718.519999997
 20
4346533.720999996
  0
LWPOLYLINE
  5
D3
330
2
100
AcDbEntity
  8
0
  6
Continuous
 62
     7
370
    13
100
AcDbPolyline
 90
        4
 70
   129
 43
0.0
 10
1503690.109999998
 20
4346360.609999997
 10
1503685.859999998
 20
4346357.139999997
 10
1503684.019999998
 20
4346359.399999996
 10
1503688.259999998
 20
4346362.869999996
  0
LWPOLYLINE
  5
D4
330
2
100
AcDbEntity
  8
0
  6
Continuous
 62
     7
370
    13
100
AcDbPolyline
 90
        4
 70
   129
 43
0.0
 10
1503693.458999999
 20
4346357.280999997
 10
1503694.803999998
 20
4346355.956999999
 10
1503692.228999998
 20
4346353.330999998
 10
1503690.878999998
 20
4346354.660999996
  0
LWPOLYLINE
  5
D5
330
2
100
AcDbEntity
  8
0
  6
Continuous
 62
     7
370
    13
100
AcDbPolyline
 90
        4
 70
   129
 43
0.0
 10
1503699.499999997
 20
4346350.339999996
 10
1503697.419999998
 20
4346348.239999997
 10
1503695.129999997
 20
4346350.499999996
 10
1503697.219999998
 20
4346352.609999997
  0
LWPOLYLINE
  5
D6
330
2
100
AcDbEntity
  8
0
  6
Continuous
 62
     7
370
    13
100
AcDbPolyline
 90
        4
 70
   128
 43
0.0
 10
1503694.803999998
 20
4346355.956999999
 10
1503697.499999998
 20
4346353.549999997
 10
1503694.839999998
 20
4346350.669999996
 10
1503692.228999998
 20
4346353.330999998
  0
LWPOLYLINE
  5
D7
330
2
100
AcDbEntity
  8
0
  6
Continuous
 62
     7
370
    13
100
AcDbPolyline
 90
        4
 70
   129
 43
0.0
 10
1503810.059999998
 20
4346283.119999998
 10
1503809.169999998
 20
4346279.089999996
 10
1503805.619999999
 20
4346279.87
 10
1503806.509999998
 20
4346283.899999997
  0
LWPOLYLINE
  5
D8
330
2
100
AcDbEntity
  8
0
  6
Continuous
 62
     7
370
    13
100
AcDbPolyline
 90
        4
 70
   129
 43
0.0
 10
1503799.859999998
 20
4346283.319999998
 10
1503802.949999997
 20
4346281.699999996
 10
1503801.549999998
 20
4346279.049999997
 10
1503798.469999998
 20
4346280.679999998
  0
LWPOLYLINE
  5
D9
330
2
100
AcDbEntity
  8
0
  6
Continuous
 62
     7
370
    13
100
AcDbPolyline
 90
        4
 70
   129
 43
0.0
 10
1503989.609999999
 20
4346323.979999998
 10
1503991.509999998
 20
4346322.529999997
 10
1503993.849999998
 20
4346325.629999997
 10
1503991.978999998
 20
4346327.050999997
  0
LWPOLYLINE
  5
DA
330
2
100
AcDbEntity
  8
0
  6
Continuous
 62
     7
370
    13
100
AcDbPolyline
 90
        4
 70
   129
 43
0.0
 10
1503977.109999998
 20
4346327.859999997
 10
1503975.969999997
 20
4346326.409999996
 10
1503983.729999998
 20
4346320.399999998
 10
1503986.009999998
 20
4346320.679999998
  0
LWPOLYLINE
  5
DB
330
2
100
AcDbEntity
  8
0
  6
Continuous
 62
     7
370
    13
100
AcDbPolyline
 90
        5
 70
   129
 43
0.0
 10
1503983.569999997
 20
4346310.999999998
 10
1503980.829999998
 20
4346310.769999997
 10
1503980.719999997
 20
4346312.319999996
 10
1503983.829999997
 20
4346312.559999997
 10
1503983.899999998
 20
4346311.629999998
  0
LWPOLYLINE
  5
DC
330
2
100
AcDbEntity
  8
0
  6
Continuous
 62
     7
370
    13
100
AcDbPolyline
 90
        5
 70
   129
 43
0.0
 10
1503942.389999997
 20
4346297.429999998
 10
1503945.839999999
 20
4346294.449999997
 10
1503941.779999999
 20
4346287.839999998
 10
1503936.329999998
 20
4346290.949999997
 10
1503939.519999998
 20
4346295.299999996
  0
LWPOLYLINE
  5
DD
330
2
100
AcDbEntity
  8
0
  6
Continuous
 62
     7
370
    13
100
AcDbPolyline
 90
        4
 70
   129
 43
0.0
 10
1503951.308999998
 20
4346289.893999999
 10
1503947.899999998
 20
4346284.359999998
 10
1503944.729999998
 20
4346286.169999998
 10
1503948.449999998
 20
4346291.839999998
  0
LWPOLYLINE
  5
DE
330
2
100
AcDbEntity
  8
0
  6
Continuous
 62
     7
370
    13
100
AcDbPolyline
 90
        4
 70
   129
 43
0.0
 10
1503986.299999998
 20
4346265.289999997
 10
1503993.109999998
 20
4346261.319999999
 10
1503991.959999998
 20
4346259.269999997
 10
1503985.189999998
 20
4346263.129999997
  0
LWPOLYLINE
  5
DF
330
2
100
AcDbEntity
  8
0
  6
Continuous
 62
     7
370
    13
100
AcDbPolyline
 90
        8
 70
   129
 43
0.0
 10
1503905.429999998
 20
4346361.819999996
 10
1503910.639999998
 20
4346357.789999997
 10
1503911.309999998
 20
4346351.289999997
 10
1503907.289999998
 20
4346346.069999996
 10
1503900.929999998
 20
4346345.179999996
 10
1503895.659999998
 20
4346349.159999999
 10
1503894.599999998
 20
4346355.799999998
 10
1503898.609999998
 20
4346360.909999997
  0
LWPOLYLINE
  5
E0
330
2
100
AcDbEntity
  8
0
  6
Continuous
 62
     7
370
    13
100
AcDbPolyline
 90
        4
 70
   129
 43
0.0
 10
1503937.359999998
 20
4346398.979999999
 10
1503938.559999998
 20
4346398.339999998
 10
1503937.229999998
 20
4346395.829999998
 10
1503936.029999997
 20
4346396.459999997
  0
LWPOLYLINE
  5
E1
330
2
100
AcDbEntity
  8
0
  6
Continuous
 62
     7
370
    13
100
AcDbPolyline
 90
        4
 70
   129
 43
0.0
 10
1503944.359999998
 20
4346411.499999998
 10
1503945.559999998
 20
4346410.859999997
 10
1503944.219999997
 20
4346408.349999998
 10
1503943.019999997
 20
4346408.979999998
  0
LWPOLYLINE
  5
E2
330
2
100
AcDbEntity
  8
0
  6
Continuous
 62
     7
370
    13
100
AcDbPolyline
 90
        4
 70
   129
 43
0.0
 10
1503951.469999996
 20
4346424.409999998
 10
1503952.679999998
 20
4346423.769999997
 10
1503951.339999998
 20
4346421.259999997
 10
1503950.139999997
 20
4346421.899999998
  0
LWPOLYLINE
  5
E3
330
2
100
AcDbEntity
  8
0
  6
Continuous
 62
     7
370
    13
100
AcDbPolyline
 90
        4
 70
   129
 43
0.0
 10
1503929.849999998
 20
4346385.779999997
 10
1503931.049999998
 20
4346385.139999997
 10
1503929.709999998
 20
4346382.629999997
 10
1503928.519999998
 20
4346383.269999997
  0
LWPOLYLINE
  5
E4
330
2
100
AcDbEntity
  8
0
  6
Continuous
 62
     7
370
    13
100
AcDbPolyline
 90
        4
 70
   129
 43
0.0
 10
1503865.159999998
 20
4346440.009999995
 10
1503867.009999998
 20
4346438.519999998
 10
1503865.319999997
 20
4346436.429999997
 10
1503863.469999997
 20
4346437.929999997
  0
LWPOLYLINE
  5
E5
330
2
100
AcDbEntity
  8
0
  6
Continuous
 62
     7
370
    13
100
AcDbPolyline
 90
        4
 70
   129
 43
0.0
 10
1503955.759999997
 20
4346520.019999997
 10
1503954.059999997
 20
4346517.409999997
 10
1503958.739999997
 20
4346514.469999998
 10
1503960.419999998
 20
4346517.049999997
  0
LWPOLYLINE
  5
E6
330
2
100
AcDbEntity
  8
0
  6
Continuous
 62
     7
370
    13
100
AcDbPolyline
 90
        4
 70
   129
 43
0.0
 10
1503993.109999997
 20
4346509.319999998
 10
1503994.199999997
 20
4346511.059999999
 10
1503989.496999997
 20
4346514.004999997
 10
1503988.422999997
 20
4346512.337999997
  0
LWPOLYLINE
  5
E7
330
2
100
AcDbEntity
  8
0
  6
Continuous
 62
     7
370
    13
100
AcDbPolyline
 90
        4
 70
   129
 43
0.0
 10
1503849.659999997
 20
4346541.929999998
 10
1503847.629999996
 20
4346543.599999996
 10
1503837.449999997
 20
4346531.429999997
 10
1503839.669999997
 20
4346529.619999997
  0
LWPOLYLINE
  5
E8
330
2
100
AcDbEntity
  8
0
  6
Continuous
 62
     7
370
    13
100
AcDbPolyline
 90
        8
 70
   129
 43
0.0
 10
1503800.079999997
 20
4346537.499999997
 10
1503798.639999997
 20
4346535.539999996
 10
1503802.219999997
 20
4346532.979999999
 10
1503803.649999997
 20
4346534.779999998
 10
1503807.499999997
 20
4346531.879999997
 10
1503810.969999997
 20
4346536.149999998
 10
1503806.209999997
 20
4346539.789999995
 10
1503802.849999996
 20
4346535.379999996
  0
LWPOLYLINE
  5
E9
330
2
100
AcDbEntity
  8
0
  6
Continuous
 62
     7
370
    13
100
AcDbPolyline
 90
        8
 70
   129
 43
0.0
 10
1503770.719999996
 20
4346531.539999997
 10
1503766.059999997
 20
4346525.569999998
 10
1503752.939999997
 20
4346541.609999997
 10
1503755.239999997
 20
4346544.489999997
 10
1503756.049999997
 20
4346543.889999996
 10
1503755.629999997
 20
4346543.229999999
 10
1503766.099999998
 20
4346530.839999996
 10
1503767.939999997
 20
4346533.349999996
  0
LWPOLYLINE
  5
EA
330
2
100
AcDbEntity
  8
0
  6
Continuous
 62
     7
370
    13
100
AcDbPolyline
 90
       10
 70
   129
 43
0.0
 10
1503993.009999998
 20
4346277.549999997
 10
1503993.630999999
 20
4346277.201999997
 10
1503994.909999998
 20
4346279.519999997
 10
1503995.909999999
 20
4346278.979999999
 10
1503996.619999998
 20
4346280.259999998
 10
1503998.389999998
 20
4346279.199999997
 10
1503999.099999998
 20
4346280.199999998
 10
1503993.069999997
 20
4346283.659999998
 10
1503990.799999999
 20
4346279.879999997
 10
1503993.409999998
 20
4346278.259999998
  0
LWPOLYLINE
  5
EB
330
2
100
AcDbEntity
  8
0
  6
Continuous
 62
     7
370
    13
100
AcDbPolyline
 90
       10
 70
   129
 43
0.0
 10
1503991.799999998
 20
4346304.139999997
 10
1503993.054999998
 20
4346303.458999998
 10
1503993.749999998
 20
4346304.769999997
 10
1503992.179999997
 20
4346305.609999998
 10
1503993.999999997
 20
4346308.999999997
 10
1503991.884999997
 20
4346310.141999997
 10
1503990.269999998
 20
4346306.639999997
 10
1503988.729999997
 20
4346307.449999998
 10
1503987.529999998
 20
4346305.259999998
 10
1503991.329999998
 20
4346303.199999997
  0
LWPOLYLINE
  5
EC
330
2
100
AcDbEntity
  8
0
  6
DGN Style 5
 62
     7
370
     0
100
AcDbPolyline
 90
        4
 70
   128
 43
0.0
 10
1503999.999999998
 20
4346377.747
 10
1503995.319999998
 20
4346371.769999997
 10
1503993.999999998
 20
4346370.999999998
 10
1503992.279999998
 20
4346370.679999998
  0
LWPOLYLINE
  5
ED
330
2
100
AcDbEntity
  8
0
  6
DGN Style 5
 62
     7
370
     0
100
AcDbPolyline
 90
       22
 70
   128
 43
0.0
 10
1503999.999999997
 20
4346463.977999999
 10
1503968.009999998
 20
4346441.679999997
 10
1503955.839999998
 20
4346433.409999998
 10
1503955.099999998
 20
4346432.729999998
 10
1503954.439999997
 20
4346431.879999999
 10
1503922.359999998
 20
4346374.489999996
 10
1503921.809999998
 20
4346373.319999998
 10
1503921.849999997
 20
4346372.609999997
 10
1503921.889999998
 20
4346371.909999998
 10
1503959.129999998
 20
4346338.639999997
 10
1503960.699999998
 20
4346337.729999999
 10
1503962.119999999
 20
4346337.389999996
 10
1503964.189999998
 20
4346337.249999998
 10
1503965.839999998
 20
4346337.339999997
 10
1503966.999999998
 20
4346337.809999997
 10
1503968.399999998
 20
4346338.589999997
 10
1503969.729999998
 20
4346339.729999998
 10
1503971.369999998
 20
4346341.589999998
 10
1503988.829999998
 20
4346363.699999997
 10
1503988.969999998
 20
4346364.499999999
 10
1503989.019999997
 20
4346365.189999998
 10
1503988.599999998
 20
4346366.449999997
  0
LWPOLYLINE
  5
EE
330
2
100
AcDbEntity
  8
0
  6
DGN Style 5
 62
     7
370
     0
100
AcDbPolyline
 90
        7
 70
   128
 43
0.0
 10
1503973.729999997
 20
4346488.429999998
 10
1503974.569999997
 20
4346487.699999998
 10
1503983.354999997
 20
4346483.550999997
 10
1503987.199999997
 20
4346485.909999998
 10
1503988.619999997
 20
4346486.459999998
 10
1503989.879999997
 20
4346486.139999997
 10
1503999.999999997
 20
4346480.558999999
  0
LWPOLYLINE
  5
EF
330
2
100
AcDbEntity
  8
0
  6
DGN Style 5
 62
     7
370
     0
100
AcDbPolyline
 90
        3
 70
   128
 43
0.0
 10
1503980.969999998
 20
4346460.379999998
 10
1503982.449999997
 20
4346459.139999997
 10
1503999.999999997
 20
4346471.356999997
  0
LWPOLYLINE
  5
F0
330
2
100
AcDbEntity
  8
0
  6
DGN Style 5
 62
     7
370
     0
100
AcDbPolyline
 90
       16
 70
   128
 43
0.0
 10
1503999.999999998
 20
4346516.285999999
 10
1503989.719999997
 20
4346522.849999998
 10
1503967.819999997
 20
4346536.789999998
 10
1503966.399999998
 20
4346537.119999998
 10
1503964.879999997
 20
4346537.029999999
 10
1503963.929999996
 20
4346536.649999999
 10
1503962.709999997
 20
4346536.009999996
 10
1503961.999999997
 20
4346535.289999997
 10
1503950.599999997
 20
4346520.009999998
 10
1503947.609999997
 20
4346516.379999997
 10
1503946.559999997
 20
4346515.839999997
 10
1503945.409999996
 20
4346515.469999999
 10
1503943.999999997
 20
4346515.409999998
 10
1503942.669999998
 20
4346515.909999998
 10
1503941.659999997
 20
4346516.629999997
 10
1503931.039999997
 20
4346524.669999998
  0
LWPOLYLINE
  5
F1
330
2
100
AcDbEntity
  8
0
  6
Continuous
 62
     7
370
    13
100
AcDbPolyline
 90
        5
 70
   128
 43
0.0
 10
1503999.999999997
 20
4346527.557999998
 10
1503976.509999997
 20
4346542.389999997
 10
1503975.609999997
 20
4346543.399999998
 10
1503975.339999997
 20
4346544.749999997
 10
1503975.209999997
 20
4346546.629999997
  0
LWPOLYLINE
  5
F2
330
2
100
AcDbEntity
  8
0
  6
DGN Style 2
 62
     7
370
    13
100
AcDbPolyline
 90
       23
 70
   128
 43
0.0
 10
1503943.099999998
 20
4346273.569999998
 10
1503942.831999999
 20
4346275.261999998
 10
1503942.451999998
 20
4346275.783999998
 10
1503941.529999998
 20
4346276.589999998
 10
1503940.519999998
 20
4346273.179999998
 10
1503930.229999998
 20
4346256.699999997
 10
1503924.469999998
 20
4346247.959999997
 10
1503921.209999999
 20
4346243.129999997
 10
1503920.319999998
 20
4346240.249999998
 10
1503920.479999998
 20
4346238.639999996
 10
1503921.129999998
 20
4346237.309999996
 10
1503922.899999999
 20
4346236.319999999
 10
1503947.639999997
 20
4346223.699999997
 10
1503955.829999998
 20
4346219.049999999
 10
1503956.969999998
 20
4346218.169999998
 10
1503960.249999999
 20
4346212.389999997
 10
1503968.019999998
 20
4346198.549999997
 10
1503971.179999997
 20
4346191.199999998
 10
1503973.809999998
 20
4346187.059999998
 10
1503976.619999999
 20
4346183.369999997
 10
1503981.809999999
 20
4346177.429999999
 10
1503998.169999999
 20
4346160.659999998
 10
1503999.999999999
 20
4346158.799999996
  0
LWPOLYLINE
  5
F3
330
2
100
AcDbEntity
  8
0
  6
Continuous
 62
     7
370
    13
100
AcDbPolyline
 90
       15
 70
   128
 43
0.0
 10
1503952.339999998
 20
4346307.069999999
 10
1503950.399999998
 20
4346308.399999997
 10
1503949.639999997
 20
4346308.639999998
 10
1503938.269999998
 20
4346308.929999998
 10
1503933.269999998
 20
4346307.819999998
 10
1503930.519999998
 20
4346307.209999997
 10
1503928.509999998
 20
4346306.209999998
 10
1503927.339999999
 20
4346305.119999999
 10
1503926.339999998
 20
4346303.979999999
 10
1503925.699999998
 20
4346302.959999997
 10
1503925.329999998
 20
4346301.399999998
 10
1503925.169999998
 20
4346299.339999998
 10
1503925.149999998
 20
4346297.639999997
 10
1503925.459999998
 20
4346296.269999998
 10
1503926.269999998
 20
4346295.029999997
  0
LWPOLYLINE
  5
F4
330
2
100
AcDbEntity
  8
0
  6
Continuous
 62
     7
370
    13
100
AcDbPolyline
 90
        5
 70
   129
 43
0.0
 10
1503957.649999998
 20
4346286.909999998
 10
1503953.176999998
 20
4346289.964999997
 10
1503953.543999998
 20
4346290.504999998
 10
1503954.239999998
 20
4346291.521999998
 10
1503958.712999998
 20
4346288.466999998
  0
LWPOLYLINE
  5
F5
330
2
100
AcDbEntity
  8
0
  6
Continuous
 62
     7
370
    13
100
AcDbPolyline
 90
        6
 70
   129
 43
0.0
 10
1503948.449999998
 20
4346291.839999998
 10
1503951.308999998
 20
4346289.893999999
 10
1503952.548999998
 20
4346289.044999998
 10
1503953.176999998
 20
4346289.964999997
 10
1503953.543999998
 20
4346290.504999998
 10
1503949.445999998
 20
4346293.299999997
  0
LWPOLYLINE
  5
F6
330
2
100
AcDbEntity
  8
0
  6
Continuous
 62
     7
370
    13
100
AcDbPolyline
 90
        4
 70
   129
 43
0.0
 10
1503949.445999998
 20
4346293.299999997
 10
1503951.749999998
 20
4346297.066999998
 10
1503950.303999998
 20
4346297.951999998
 10
1503947.998999997
 20
4346294.184999996
  0
LWPOLYLINE
  5
F7
330
2
100
AcDbEntity
  8
0
  6
DGN Style 5
 62
     7
370
     0
100
AcDbPolyline
 90
       11
 70
   128
 43
0.0
 10
1503999.889999998
 20
4346320.659999998
 10
1503974.909999998
 20
4346319.069999998
 10
1503973.839999997
 20
4346319.469999998
 10
1503973.009999997
 20
4346320.179999997
 10
1503972.259999997
 20
4346321.179999998
 10
1503971.829999998
 20
4346322.089999998
 10
1503971.479999997
 20
4346323.609999998
 10
1503971.549999997
 20
4346324.229999997
 10
1503971.870999998
 20
4346325.337999997
 10
1503972.569999998
 20
4346326.409999998
 10
1503999.999999997
 20
4346360.244999997
  0
LWPOLYLINE
  5
F8
330
2
100
AcDbEntity
  8
0
  6
Continuous
 62
     7
370
    13
100
AcDbPolyline
 90
       31
 70
   128
 43
0.0
 10
1503767.949999998
 20
4346285.339999996
 10
1503770.449999998
 20
4346292.919999996
 10
1503770.059999999
 20
4346294.639999997
 10
1503770.659999998
 20
4346297.049999996
 10
1503776.269999998
 20
4346308.609999997
 10
1503776.873999998
 20
4346310.968999997
 10
1503777.009999998
 20
4346312.959999997
 10
1503776.842999998
 20
4346314.905999999
 10
1503776.629999998
 20
4346316.229999997
 10
1503776.419999999
 20
4346317.699999997
 10
1503776.098999999
 20
4346318.285999998
 10
1503775.839999998
 20
4346318.629999997
 10
1503775.399999998
 20
4346319.019999996
 10
1503770.259999998
 20
4346321.209999997
 10
1503765.869999999
 20
4346323.609999998
 10
1503757.369999999
 20
4346329.499999996
 10
1503739.369999998
 20
4346342.289999997
 10
1503717.619999998
 20
4346358.879999997
 10
1503704.019999997
 20
4346368.449999998
 10
1503701.279999998
 20
4346370.109999997
 10
1503698.499999998
 20
4346371.109999997
 10
1503696.309999998
 20
4346371.749999998
 10
1503694.079999997
 20
4346372.089999996
 10
1503691.359999998
 20
4346372.409999997
 10
1503689.069999997
 20
4346372.199999997
 10
1503686.779999997
 20
4346371.889999996
 10
1503683.879999998
 20
4346371.209999997
 10
1503680.119999998
 20
4346369.929999996
 10
1503644.609999998
 20
4346354.299999997
 10
1503603.899999998
 20
4346336.449999998
 10
1503582.529999998
 20
4346327.369999995
  0
LWPOLYLINE
  5
F9
330
2
100
AcDbEntity
  8
0
  6
DGN Style 2
 62
     7
370
    13
100
AcDbPolyline
 90
       11
 70
   128
 43
0.0
 10
1503816.349999997
 20
4346508.859999998
 10
1503817.739999997
 20
4346506.699999998
 10
1503823.399999997
 20
4346501.409999996
 10
1503828.929999997
 20
4346496.719999997
 10
1503832.119999998
 20
4346495.049999997
 10
1503834.709999997
 20
4346493.869999997
 10
1503834.906999997
 20
4346492.726999998
 10
1503834.719999997
 20
4346491.836999997
 10
1503833.642999997
 20
4346490.056999996
 10
1503833.361999997
 20
4346489.588999998
 10
1503832.499999997
 20
4346488.909999997
  0
LWPOLYLINE
  5
FA
330
2
100
AcDbEntity
  8
0
  6
DGN Style 2
 62
     7
370
    13
100
AcDbPolyline
 90
        7
 70
   128
 43
0.0
 10
1503813.599999998
 20
4346505.479999996
 10
1503815.470999997
 20
4346504.132999998
 10
1503818.539999997
 20
4346501.299999996
 10
1503825.079999997
 20
4346496.019999996
 10
1503828.459999997
 20
4346493.209999997
 10
1503829.789999997
 20
4346491.929999996
 10
1503832.499999997
 20
4346488.909999997
  0
LWPOLYLINE
  5
FB
330
2
100
AcDbEntity
  8
0
  6
Continuous
 62
     7
370
    13
100
AcDbPolyline
 90
        4
 70
   129
 43
0.0
 10
1503897.419999998
 20
4346502.959999998
 10
1503887.339999997
 20
4346490.795999997
 10
1503885.379999997
 20
4346492.419999996
 10
1503895.459999997
 20
4346504.583999997
  0
LWPOLYLINE
  5
FC
330
2
100
AcDbEntity
  8
0
  6
DGN Style 2
 62
     7
370
    13
100
AcDbPolyline
 90
       14
 70
   128
 43
0.0
 10
1503780.039999997
 20
4346499.599999997
 10
1503778.226999997
 20
4346501.914999997
 10
1503777.089999997
 20
4346504.609999997
 10
1503775.559999998
 20
4346510.999999998
 10
1503775.159999997
 20
4346512.929999995
 10
1503774.399999997
 20
4346514.349999998
 10
1503773.159999997
 20
4346515.099999997
 10
1503771.789999997
 20
4346516.889999995
 10
1503771.019999998
 20
4346518.339999998
 10
1503770.939999997
 20
4346519.289999998
 10
1503771.329999997
 20
4346520.429999996
 10
1503777.219999998
 20
4346529.109999997
 10
1503778.849999998
 20
4346530.519999998
 10
1503779.909999997
 20
4346530.549999997
  0
LWPOLYLINE
  5
FD
330
2
100
AcDbEntity
  8
0
  6
Continuous
 62
     7
370
    13
100
AcDbPolyline
 90
        4
 70
   129
 43
0.0
 10
1503869.096999998
 20
4346528.756999997
 10
1503874.166999996
 20
4346534.871999998
 10
1503869.130999997
 20
4346539.046999999
 10
1503864.061999997
 20
4346532.930999997
  0
LWPOLYLINE
  5
FE
330
2
100
AcDbEntity
  8
0
  6
Continuous
 62
     7
370
    13
100
AcDbPolyline
 90
        4
 70
   129
 43
0.0
 10
1503960.149999997
 20
4346530.259999997
 10
1503961.322999997
 20
4346532.047999996
 10
1503966.126999997
 20
4346528.896999997
 10
1503964.988999997
 20
4346527.135999997
  0
LWPOLYLINE
  5
FF
330
2
100
AcDbEntity
  8
0
  6
DGN Style 2
 62
     7
370
    13
100
AcDbPolyline
 90
       71
 70
   129
 43
0.0
 10
1503617.469999998
 20
4346452.999999995
 10
1503619.889999997
 20
4346451.629999997
 10
1503621.839999998
 20
4346451.069999996
 10
1503623.189999997
 20
4346451.059999997
 10
1503624.419999997
 20
4346451.549999995
 10
1503625.099999997
 20
4346452.709999997
 10
1503629.659999997
 20
4346459.909999997
 10
1503633.469999998
 20
4346466.519999997
 10
1503637.209999998
 20
4346471.839999997
 10
1503642.149999998
 20
4346477.789999997
 10
1503647.219999997
 20
4346484.389999996
 10
1503652.149999997
 20
4346490.859999996
 10
1503656.669999997
 20
4346497.169999998
 10
1503661.519999997
 20
4346503.979999998
 10
1503665.289999998
 20
4346510.049999996
 10
1503668.969999997
 20
4346515.959999995
 10
1503671.899999997
 20
4346520.859999996
 10
1503674.789999997
 20
4346525.959999997
 10
1503675.649999997
 20
4346530.499999996
 10
1503675.949999997
 20
4346534.709999997
 10
1503677.429999997
 20
4346538.589999996
 10
1503679.329999997
 20
4346542.319999996
 10
1503682.029999998
 20
4346546.429999997
 10
1503685.379999997
 20
4346551.069999996
 10
1503690.339999997
 20
4346557.019999996
 10
1503693.199999997
 20
4346560.859999996
 10
1503694.379999997
 20
4346563.059999996
 10
1503694.749999997
 20
4346565.189999997
 10
1503694.439999997
 20
4346567.219999997
 10
1503693.529999996
 20
4346569.179999995
 10
1503691.459999997
 20
4346570.929999996
 10
1503687.439999997
 20
4346573.849999996
 10
1503682.229999997
 20
4346578.839999996
 10
1503676.249999997
 20
4346584.779999997
 10
1503670.619999997
 20
4346590.719999997
 10
1503668.349999997
 20
4346593.849999996
 10
1503664.669999997
 20
4346597.919999998
 10
1503660.329999997
 20
4346602.339999996
 10
1503654.449999997
 20
4346607.979999997
 10
1503654.389999996
 20
4346606.449999995
 10
1503653.209999997
 20
4346603.619999997
 10
1503650.319999997
 20
4346600.199999997
 10
1503644.509999998
 20
4346593.329999998
 10
1503636.479999996
 20
4346585.159999996
 10
1503625.609999997
 20
4346573.739999996
 10
1503617.839999997
 20
4346564.929999995
 10
1503611.239999997
 20
4346557.749999997
 10
1503599.559999997
 20
4346545.139999995
 10
1503591.219999997
 20
4346535.989999996
 10
1503583.109999997
 20
4346527.199999996
 10
1503574.049999997
 20
4346517.759999996
 10
1503566.269999997
 20
4346509.799999996
 10
1503561.989999998
 20
4346506.449999997
 10
1503561.264999996
 20
4346505.899999995
 10
1503560.605999997
 20
4346505.283999996
 10
1503559.879999997
 20
4346504.009999996
 10
1503559.129999997
 20
4346501.769999995
 10
1503558.669999997
 20
4346499.509999996
 10
1503558.627999997
 20
4346498.945999996
 10
1503558.929999996
 20
4346498.269999996
 10
1503559.286999997
 20
4346497.754999997
 10
1503559.769999997
 20
4346497.359999997
 10
1503563.259999997
 20
4346495.379999995
 10
1503568.189999997
 20
4346492.159999997
 10
1503572.719999997
 20
4346489.179999996
 10
1503577.489999997
 20
4346485.659999997
 10
1503581.129999997
 20
4346482.729999996
 10
1503587.309999997
 20
4346477.809999995
 10
1503594.659999998
 20
4346471.789999996
 10
1503599.299999997
 20
4346467.949999996
 10
1503606.539999998
 20
4346461.959999995
  0
LWPOLYLINE
  5
100
330
2
100
AcDbEntity
  8
0
  6
DGN Style 5
 62
     7
370
     0
100
AcDbPolyline
 90
       15
 70
   128
 43
0.0
 10
1503783.019999997
 20
4346497.909999998
 10
1503784.689999997
 20
4346497.779999997
 10
1503786.809999997
 20
4346498.019999997
 10
1503787.629999997
 20
4346498.229999999
 10
1503795.989999997
 20
4346507.199999997
 10
1503855.709999997
 20
4346580.699999997
 10
1503857.479999997
 20
4346582.289999997
 10
1503859.189999996
 20
4346583.459999997
 10
1503860.258999997
 20
4346583.934999997
 10
1503861.589999997
 20
4346584.199999997
 10
1503863.719999997
 20
4346584.479999998
 10
1503866.179999997
 20
4346584.429999998
 10
1503867.569999996
 20
4346584.549999997
 10
1503868.419999996
 20
4346585.019999998
 10
1503869.859999996
 20
4346586.679999997
  0
LWPOLYLINE
  5
101
330
2
100
AcDbEntity
  8
0
  6
DGN Style 2
 62
     7
370
    13
100
AcDbPolyline
 90
       73
 70
   128
 43
0.0
 10
1503673.419999997
 20
4346655.889999997
 10
1503670.769999997
 20
4346655.459999997
 10
1503668.379999996
 20
4346650.769999995
 10
1503667.239999996
 20
4346649.859999995
 10
1503666.319999996
 20
4346649.999999995
 10
1503659.519999996
 20
4346653.519999996
 10
1503657.809999996
 20
4346655.249999996
 10
1503657.239999996
 20
4346656.939999997
 10
1503656.069999997
 20
4346658.199999997
 10
1503654.619999996
 20
4346659.259999996
 10
1503652.869999996
 20
4346660.129999996
 10
1503650.409999996
 20
4346660.359999997
 10
1503649.389999995
 20
4346659.659999996
 10
1503648.369999997
 20
4346658.519999996
 10
1503645.219999997
 20
4346654.279999995
 10
1503641.559999996
 20
4346649.879999997
 10
1503638.569999996
 20
4346644.789999997
 10
1503636.739999997
 20
4346641.499999996
 10
1503636.209999997
 20
4346638.869999997
 10
1503636.469999996
 20
4346636.749999996
 10
1503636.849999996
 20
4346634.499999996
 10
1503637.839999997
 20
4346632.209999997
 10
1503639.149999997
 20
4346630.069999996
 10
1503641.779999997
 20
4346626.589999996
 10
1503650.279999996
 20
4346617.089999997
 10
1503658.109999997
 20
4346607.979999997
 10
1503669.819999997
 20
4346595.979999998
 10
1503678.699999996
 20
4346586.129999995
 10
1503686.099999996
 20
4346578.249999997
 10
1503691.309999997
 20
4346573.859999997
 10
1503694.429999996
 20
4346571.589999996
 10
1503696.159999997
 20
4346569.699999998
 10
1503697.449999997
 20
4346567.159999996
 10
1503698.549999997
 20
4346564.359999997
 10
1503699.999999997
 20
4346561.699999997
 10
1503702.079999997
 20
4346559.239999996
 10
1503705.849999997
 20
4346554.339999998
 10
1503710.149999997
 20
4346549.409999997
 10
1503714.499999997
 20
4346543.479999998
 10
1503716.539999997
 20
4346539.909999998
 10
1503717.659999997
 20
4346537.069999999
 10
1503718.144999997
 20
4346535.818999996
 10
1503718.329999997
 20
4346534.639999997
 10
1503717.939999997
 20
4346532.469999997
 10
1503716.869999998
 20
4346530.019999995
 10
1503715.669999997
 20
4346527.959999997
 10
1503712.369999997
 20
4346523.749999996
 10
1503696.969999998
 20
4346510.969999997
 10
1503687.509999998
 20
4346502.379999996
 10
1503673.269999997
 20
4346488.209999998
 10
1503662.139999997
 20
4346477.219999996
 10
1503646.309999998
 20
4346463.469999997
 10
1503640.249999998
 20
4346459.119999997
 10
1503636.409999998
 20
4346456.519999995
 10
1503633.639999996
 20
4346454.839999996
 10
1503631.299999998
 20
4346453.519999997
 10
1503629.819999998
 20
4346452.049999997
 10
1503628.079999998
 20
4346449.379999997
 10
1503627.359999998
 20
4346447.569999996
 10
1503627.449999997
 20
4346446.119999997
 10
1503627.899999997
 20
4346444.739999996
 10
1503628.989999997
 20
4346442.799999995
 10
1503630.019999997
 20
4346441.089999996
 10
1503632.699999998
 20
4346438.839999996
 10
1503635.869999997
 20
4346435.999999997
 10
1503642.169999997
 20
4346429.249999996
 10
1503648.109999997
 20
4346423.729999997
 10
1503661.029999997
 20
4346411.429999996
 10
1503668.759999997
 20
4346405.039999996
 10
1503674.339999998
 20
4346400.659999996
 10
1503679.259999998
 20
4346395.249999996
 10
1503682.419999998
 20
4346391.629999997
 10
1503687.299999998
 20
4346387.179999996
  0
LWPOLYLINE
  5
102
330
2
100
AcDbEntity
  8
0
  6
DGN Style 2
 62
     7
370
    13
100
AcDbPolyline
 90
       43
 70
   128
 43
0.0
 10
1503774.339999996
 20
4346536.389999997
 10
1503774.539999997
 20
4346536.049999997
 10
1503774.548999998
 20
4346535.634999995
 10
1503774.138999998
 20
4346534.881999997
 10
1503768.859999997
 20
4346527.059999997
 10
1503767.459999997
 20
4346524.639999997
 10
1503766.649999997
 20
4346522.249999996
 10
1503766.409999997
 20
4346519.689999998
 10
1503766.299999997
 20
4346516.569999996
 10
1503766.489999997
 20
4346512.589999996
 10
1503767.539999998
 20
4346508.159999998
 10
1503769.459999997
 20
4346502.769999996
 10
1503772.009999998
 20
4346497.979999996
 10
1503773.049999997
 20
4346495.679999996
 10
1503774.089999998
 20
4346493.199999997
 10
1503774.139999997
 20
4346492.299999996
 10
1503773.969999997
 20
4346491.429999996
 10
1503773.279999998
 20
4346490.329999999
 10
1503767.749999997
 20
4346484.729999996
 10
1503761.209999997
 20
4346478.959999997
 10
1503753.339999997
 20
4346469.229999996
 10
1503747.999999998
 20
4346462.829999996
 10
1503736.559999997
 20
4346450.769999996
 10
1503729.769999997
 20
4346443.959999997
 10
1503726.039999998
 20
4346439.179999998
 10
1503723.059999998
 20
4346433.769999998
 10
1503721.369999998
 20
4346430.949999997
 10
1503717.129999998
 20
4346426.509999998
 10
1503714.519999998
 20
4346423.499999998
 10
1503713.549999997
 20
4346421.749999996
 10
1503712.649999997
 20
4346420.089999996
 10
1503710.779999997
 20
4346417.299999997
 10
1503708.469999997
 20
4346415.099999996
 10
1503706.509999997
 20
4346413.379999997
 10
1503705.179999998
 20
4346412.359999997
 10
1503701.849999997
 20
4346409.829999997
 10
1503695.469999998
 20
4346404.359999998
 10
1503693.649999998
 20
4346400.979999996
 10
1503692.269999997
 20
4346397.659999996
 10
1503691.229999998
 20
4346395.179999998
 10
1503689.809999997
 20
4346392.379999997
 10
1503687.879999998
 20
4346388.679999996
 10
1503687.299999998
 20
4346387.179999996
  0
LWPOLYLINE
  5
103
330
2
100
AcDbEntity
  8
0
  6
Continuous
 62
     7
370
    40
100
AcDbPolyline
 90
        8
 70
   128
 43
0.0
 10
1503699.209999999
 20
4346251.839999996
 10
1503700.049999999
 20
4346251.299999997
 10
1503711.549999998
 20
4346243.659999997
 10
1503744.529999998
 20
4346222.569999997
 10
1503813.039999998
 20
4346179.839999997
 10
1503856.119999999
 20
4346154.779999998
 10
1503900.099999999
 20
4346129.979999997
 10
1503918.612999999
 20
4346120.123999997
  0
LWPOLYLINE
  5
104
330
2
100
AcDbEntity
  8
0
  6
Continuous
 62
     7
370
    40
100
AcDbPolyline
 90
        8
 70
   128
 43
0.0
 10
1503880.902999999
 20
4346158.574999998
 10
1503868.949999999
 20
4346164.929999998
 10
1503833.509999998
 20
4346184.799999997
 10
1503803.189999998
 20
4346202.109999997
 10
1503778.689999998
 20
4346216.609999998
 10
1503754.939999999
 20
4346231.299999997
 10
1503730.469999998
 20
4346246.699999997
 10
1503700.869999999
 20
4346265.929999995
  0
LWPOLYLINE
  5
105
330
2
100
AcDbEntity
  8
0
  6
Continuous
 62
     7
370
    40
100
AcDbPolyline
 90
        7
 70
   128
 43
0.0
 10
1503823.131999999
 20
4346178.673999997
 10
1503809.919999999
 20
4346186.689999997
 10
1503795.299999999
 20
4346195.429999996
 10
1503777.879999999
 20
4346206.199999997
 10
1503754.359999998
 20
4346220.909999996
 10
1503728.519999998
 20
4346237.589999998
 10
1503721.300999998
 20
4346242.330999997
  0
LWPOLYLINE
  5
106
330
2
100
AcDbEntity
  8
0
  6
Continuous
 62
     7
370
    40
100
AcDbPolyline
 90
        2
 70
   128
 43
0.0
 10
1503721.300999998
 20
4346242.330999997
 10
1503699.759999998
 20
4346256.479999998
  0
LWPOLYLINE
  5
107
330
2
100
AcDbEntity
  8
0
  6
DGN Style 5
 62
     7
370
     0
100
AcDbPolyline
 90
        9
 70
   128
 43
0.0
 10
1503999.999999997
 20
4346525.666999998
 10
1503969.169999997
 20
4346545.129999998
 10
1503968.129999996
 20
4346546.389999999
 10
1503967.749999997
 20
4346547.949999998
 10
1503967.859999997
 20
4346549.389999997
 10
1503968.349999997
 20
4346550.759999998
 10
1503969.879999996
 20
4346553.019999998
 10
1503973.859999998
 20
4346549.909999999
 10
1503977.787999998
 20
4346555.205999999
  0
LWPOLYLINE
  5
108
330
2
100
AcDbEntity
  8
0
  6
Continuous
 62
     7
370
    13
100
AcDbPolyline
 90
       11
 70
   128
 43
0.0
 10
1503770.509999999
 20
4346284.179999997
 10
1503781.179999998
 20
4346300.759999998
 10
1503789.469999999
 20
4346311.719999997
 10
1503793.029999998
 20
4346312.779999998
 10
1503794.139999997
 20
4346313.289999997
 10
1503795.839999998
 20
4346313.539999997
 10
1503796.609999998
 20
4346313.619999997
 10
1503797.119999998
 20
4346313.429999997
 10
1503797.789999998
 20
4346313.069999998
 10
1503798.169999998
 20
4346312.299999997
 10
1503800.129999997
 20
4346311.879999997
  0
LWPOLYLINE
  5
109
330
2
100
AcDbEntity
  8
0
  6
DGN Style 1
 62
     7
370
     0
100
AcDbPolyline
 90
       10
 70
   129
 43
0.0
 10
1503766.479999998
 20
4346496.669999998
 10
1503754.909999998
 20
4346503.819999997
 10
1503743.499999998
 20
4346509.459999997
 10
1503733.119999997
 20
4346513.569999998
 10
1503731.299999997
 20
4346513.539999996
 10
1503729.389999997
 20
4346513.189999997
 10
1503726.119999997
 20
4346511.109999997
 10
1503647.479999998
 20
4346436.069999996
 10
1503676.629999997
 20
4346409.049999995
 10
1503715.979999997
 20
4346445.799999997
  0
LWPOLYLINE
  5
10A
330
2
100
AcDbEntity
  8
0
  6
DGN Style 1
 62
     7
370
     0
100
AcDbPolyline
 90
        5
 70
   129
 43
0.0
 10
1503731.039999998
 20
4346295.029999997
 10
1503745.749999999
 20
4346311.729999997
 10
1503719.389999997
 20
4346336.499999996
 10
1503684.139999998
 20
4346305.709999997
 10
1503707.369999999
 20
4346300.299999997
  0
LINE
  5
10B
330
2
100
AcDbEntity
  8
0
  6
Continuous
 62
     7
370
     0
100
AcDbLine
 10
1503798.469999998
 20
4346280.679999998
 30
0.0
 11
1503802.949999997
 21
4346281.699999996
 31
0.0
  0
LINE
  5
10C
330
2
100
AcDbEntity
  8
0
  6
Continuous
 62
     7
370
     0
100
AcDbLine
 10
1503801.549999998
 20
4346279.049999997
 30
0.0
 11
1503799.859999998
 21
4346283.319999998
 31
0.0
  0
LINE
  5
10D
330
2
100
AcDbEntity
  8
0
  6
Continuous
 62
     7
370
     0
100
AcDbLine
 10
1503805.619999999
 20
4346279.869999997
 30
0.0
 11
1503810.059999998
 21
4346283.119999998
 31
0.0
  0
LINE
  5
10E
330
2
100
AcDbEntity
  8
0
  6
Continuous
 62
     7
370
     0
100
AcDbLine
 10
1503809.169999998
 20
4346279.089999996
 30
0.0
 11
1503806.509999998
 21
4346283.899999997
 31
0.0
  0
LINE
  5
10F
330
2
100
AcDbEntity
  8
0
  6
Continuous
 62
     7
370
     0
100
AcDbLine
 10
1503977.059999998
 20
4346327.889999996
 30
0.0
 11
1503983.729999998
 21
4346320.399999998
 31
0.0
  0
LINE
  5
110
330
2
100
AcDbEntity
  8
0
  6
Continuous
 62
     7
370
     0
100
AcDbLine
 10
1503975.969999997
 20
4346326.409999996
 30
0.0
 11
1503984.879999999
 21
4346321.599999997
 31
0.0
  0
LINE
  5
111
330
2
100
AcDbEntity
  8
0
  6
Continuous
 62
     7
370
     0
100
AcDbLine
 10
1503989.679999998
 20
4346324.069999998
 30
0.0
 11
1503993.849999998
 21
4346325.629999997
 31
0.0
  0
LINE
  5
112
330
2
100
AcDbEntity
  8
0
  6
Continuous
 62
     7
370
     0
100
AcDbLine
 10
1503991.509999998
 20
4346322.529999997
 30
0.0
 11
1503991.949999998
 21
4346327.009999998
 31
0.0
  0
LINE
  5
113
330
2
100
AcDbEntity
  8
0
  6
Continuous
 62
     7
370
     0
100
AcDbLine
 10
1503980.829999998
 20
4346310.769999997
 30
0.0
 11
1503983.829999997
 21
4346312.559999997
 31
0.0
  0
LINE
  5
114
330
2
100
AcDbEntity
  8
0
  6
Continuous
 62
     7
370
     0
100
AcDbLine
 10
1503980.719999997
 20
4346312.319999996
 30
0.0
 11
1503983.719999997
 21
4346311.289999997
 31
0.0
  0
LINE
  5
115
330
2
100
AcDbEntity
  8
0
  6
Continuous
 62
     7
370
     0
100
AcDbLine
 10
1503993.999999997
 20
4346308.999999997
 30
0.0
 11
1503990.269999998
 21
4346306.639999997
 31
0.0
  0
LINE
  5
116
330
2
100
AcDbEntity
  8
0
  6
Continuous
 62
     7
370
     0
100
AcDbLine
 10
1503991.919999997
 20
4346310.209999997
 30
0.0
 11
1503992.179999997
 21
4346305.609999998
 31
0.0
  0
LINE
  5
117
330
2
100
AcDbEntity
  8
0
  6
Continuous
 62
     7
370
     0
100
AcDbLine
 10
1503991.329999998
 20
4346303.199999997
 30
0.0
 11
1503988.849999998
 21
4346307.379999997
 31
0.0
  0
LINE
  5
118
330
2
100
AcDbEntity
  8
0
  6
Continuous
 62
     7
370
     0
100
AcDbLine
 10
1503987.669999998
 20
4346305.189999998
 30
0.0
 11
1503993.749999998
 21
4346304.769999997
 31
0.0
  0
LINE
  5
119
330
2
100
AcDbEntity
  8
0
  6
Continuous
 62
     7
370
     0
100
AcDbLine
 10
1503945.839999999
 20
4346294.449999997
 30
0.0
 11
1503936.329999998
 21
4346290.949999997
 31
0.0
  0
LINE
  5
11A
330
2
100
AcDbEntity
  8
0
  6
Continuous
 62
     7
370
     0
100
AcDbLine
 10
1503941.779999999
 20
4346287.839999998
 30
0.0
 11
1503940.699999998
 21
4346296.169999998
 31
0.0
  0
LINE
  5
11B
330
2
100
AcDbEntity
  8
0
  6
Continuous
 62
     7
370
     0
100
AcDbLine
 10
1503993.069999997
 20
4346283.659999998
 30
0.0
 11
1503994.129999998
 21
4346278.109999998
 31
0.0
  0
LINE
  5
11C
330
2
100
AcDbEntity
  8
0
  6
Continuous
 62
     7
370
     0
100
AcDbLine
 10
1503990.799999999
 20
4346279.879999997
 30
0.0
 11
1503996.719999998
 21
4346281.559999998
 31
0.0
  0
LINE
  5
11D
330
2
100
AcDbEntity
  8
0
  6
Continuous
 62
     7
370
     0
100
AcDbLine
 10
1503991.959999998
 20
4346259.269999997
 30
0.0
 11
1503986.279999998
 21
4346265.249999998
 31
0.0
  0
LINE
  5
11E
330
2
100
AcDbEntity
  8
0
  6
Continuous
 62
     7
370
     0
100
AcDbLine
 10
1503985.189999998
 20
4346263.129999997
 30
0.0
 11
1503993.109999998
 21
4346261.319999999
 31
0.0
  0
LINE
  5
11F
330
2
100
AcDbEntity
  8
0
  6
Continuous
 62
     7
370
     0
100
AcDbLine
 10
1503947.899999998
 20
4346284.359999998
 30
0.0
 11
1503948.449999998
 21
4346291.839999998
 31
0.0
  0
LINE
  5
120
330
2
100
AcDbEntity
  8
0
  6
Continuous
 62
     7
370
     0
100
AcDbLine
 10
1503951.308497491
 20
4346289.893950481
 30
0.0
 11
1503944.729999998
 21
4346286.169999998
 31
0.0
  0
LWPOLYLINE
  5
121
330
2
100
AcDbEntity
  8
0
  6
Continuous
 62
     7
370
     0
100
AcDbPolyline
 90
        8
 70
   129
 43
0.0
 10
1503894.599999998
 20
4346355.799999998
 10
1503899.519999998
 20
4346359.319999999
 10
1503905.429999998
 20
4346361.819999996
 10
1503909.019999997
 20
4346356.889999997
 10
1503911.309999998
 20
4346351.289999997
 10
1503906.369999998
 20
4346347.659999998
 10
1503900.929999998
 20
4346345.179999996
 10
1503897.229999998
 20
4346350.099999996
  0
LWPOLYLINE
  5
122
330
2
100
AcDbEntity
  8
0
  6
Continuous
 62
     7
370
     0
100
AcDbPolyline
 90
        8
 70
   129
 43
0.0
 10
1503895.659999998
 20
4346349.159999999
 10
1503896.389999998
 20
4346355.339999998
 10
1503898.609999998
 20
4346360.909999997
 10
1503904.949999997
 20
4346360.039999997
 10
1503910.639999998
 20
4346357.789999997
 10
1503909.549999998
 20
4346351.789999998
 10
1503907.289999998
 20
4346346.069999996
 10
1503901.389999998
 20
4346346.959999997
  0
LINE
  5
123
330
2
100
AcDbEntity
  8
0
  6
Continuous
 62
     7
370
     0
100
AcDbLine
 10
1503928.519999998
 20
4346383.269999997
 30
0.0
 11
1503931.049999998
 21
4346385.139999997
 31
0.0
  0
LINE
  5
124
330
2
100
AcDbEntity
  8
0
  6
Continuous
 62
     7
370
     0
100
AcDbLine
 10
1503929.709999998
 20
4346382.629999997
 30
0.0
 11
1503929.849999998
 21
4346385.779999997
 31
0.0
  0
LINE
  5
125
330
2
100
AcDbEntity
  8
0
  6
Continuous
 62
     7
370
     0
100
AcDbLine
 10
1503936.029999997
 20
4346396.459999997
 30
0.0
 11
1503938.559999998
 21
4346398.339999998
 31
0.0
  0
LINE
  5
126
330
2
100
AcDbEntity
  8
0
  6
Continuous
 62
     7
370
     0
100
AcDbLine
 10
1503937.229999998
 20
4346395.829999998
 30
0.0
 11
1503937.359999998
 21
4346398.979999999
 31
0.0
  0
LINE
  5
127
330
2
100
AcDbEntity
  8
0
  6
Continuous
 62
     7
370
     0
100
AcDbLine
 10
1503945.559999998
 20
4346410.859999997
 30
0.0
 11
1503943.019999997
 21
4346408.979999998
 31
0.0
  0
LINE
  5
128
330
2
100
AcDbEntity
  8
0
  6
Continuous
 62
     7
370
     0
100
AcDbLine
 10
1503944.219999997
 20
4346408.349999998
 30
0.0
 11
1503944.359999998
 21
4346411.499999998
 31
0.0
  0
LINE
  5
129
330
2
100
AcDbEntity
  8
0
  6
Continuous
 62
     7
370
     0
100
AcDbLine
 10
1503950.139999997
 20
4346421.899999998
 30
0.0
 11
1503952.679999998
 21
4346423.769999997
 31
0.0
  0
LINE
  5
12A
330
2
100
AcDbEntity
  8
0
  6
Continuous
 62
     7
370
     0
100
AcDbLine
 10
1503951.339999998
 20
4346421.259999997
 30
0.0
 11
1503951.469999996
 21
4346424.409999998
 31
0.0
  0
LINE
  5
12B
330
2
100
AcDbEntity
  8
0
  6
Continuous
 62
     7
370
     0
100
AcDbLine
 10
1503865.159999998
 20
4346440.009999995
 30
0.0
 11
1503865.319999997
 21
4346436.429999997
 31
0.0
  0
LINE
  5
12C
330
2
100
AcDbEntity
  8
0
  6
Continuous
 62
     7
370
     0
100
AcDbLine
 10
1503867.009999998
 20
4346438.519999998
 30
0.0
 11
1503863.399999998
 21
4346437.839999998
 31
0.0
  0
LINE
  5
12D
330
2
100
AcDbEntity
  8
0
  6
Continuous
 62
     7
370
     0
100
AcDbLine
 10
1503987.129999998
 20
4346499.999999998
 30
0.0
 11
1503981.379999998
 21
4346504.829999998
 31
0.0
  0
LINE
  5
12E
330
2
100
AcDbEntity
  8
0
  6
Continuous
 62
     7
370
     0
100
AcDbLine
 10
1503980.859999997
 20
4346504.009999996
 30
0.0
 11
1503987.709999998
 21
4346500.909999998
 31
0.0
  0
LWPOLYLINE
  5
12F
330
2
100
AcDbEntity
  8
0
  6
Continuous
 62
     7
370
     0
100
AcDbPolyline
 90
        3
 70
   128
 43
0.0
 10
1503981.909999997
 20
4346505.809999997
 10
1503971.189999998
 20
4346511.339999998
 10
1503961.679999997
 20
4346518.779999998
  0
LWPOLYLINE
  5
130
330
2
100
AcDbEntity
  8
0
  6
Continuous
 62
     7
370
     0
100
AcDbPolyline
 90
        3
 70
   128
 43
0.0
 10
1503981.379999998
 20
4346504.829999998
 10
1503971.849999998
 20
4346512.259999998
 10
1503961.199999997
 20
4346517.729999997
  0
LINE
  5
131
330
2
100
AcDbEntity
  8
0
  6
Continuous
 62
     7
370
     0
100
AcDbLine
 10
1503960.669999997
 20
4346516.889999999
 30
0.0
 11
1503954.639999998
 21
4346521.559999998
 31
0.0
  0
LINE
  5
132
330
2
100
AcDbEntity
  8
0
  6
Continuous
 62
     7
370
     0
100
AcDbLine
 10
1503954.259999997
 20
4346520.969999997
 30
0.0
 11
1503961.199999997
 21
4346517.729999997
 31
0.0
  0
LINE
  5
133
330
2
100
AcDbEntity
  8
0
  6
Continuous
 62
     7
370
     0
100
AcDbLine
 10
1503958.739999997
 20
4346514.459999998
 30
0.0
 11
1503955.759999997
 21
4346520.019999997
 31
0.0
  0
LINE
  5
134
330
2
100
AcDbEntity
  8
0
  6
Continuous
 62
     7
370
     0
100
AcDbLine
 10
1503954.059999997
 20
4346517.409999997
 30
0.0
 11
1503960.419999998
 21
4346517.049999997
 31
0.0
  0
LINE
  5
135
330
2
100
AcDbEntity
  8
0
  6
Continuous
 62
     7
370
     0
100
AcDbLine
 10
1503961.489999997
 20
4346531.989999997
 30
0.0
 11
1503964.989414639
 21
4346527.135632146
 31
0.0
  0
LINE
  5
136
330
2
100
AcDbEntity
  8
0
  6
Continuous
 62
     7
370
     0
100
AcDbLine
 10
1503966.126852588
 20
4346528.89743489
 30
0.0
 11
1503960.149999997
 21
4346530.259999997
 31
0.0
  0
LINE
  5
137
330
2
100
AcDbEntity
  8
0
  6
Continuous
 62
     7
370
     0
100
AcDbLine
 10
1503989.496747064
 20
4346514.004718077
 30
0.0
 11
1503993.099999997
 21
4346509.319999998
 31
0.0
  0
LINE
  5
138
330
2
100
AcDbEntity
  8
0
  6
Continuous
 62
     7
370
     0
100
AcDbLine
 10
1503994.199999997
 20
4346511.059999999
 30
0.0
 11
1503988.42337069
 21
4346512.337732041
 31
0.0
  0
LINE
  5
139
330
2
100
AcDbEntity
  8
0
  6
Continuous
 62
     7
370
     0
100
AcDbLine
 10
1503849.659999997
 20
4346541.929999998
 30
0.0
 11
1503837.499999997
 21
4346531.389999997
 31
0.0
  0
LINE
  5
13A
330
2
100
AcDbEntity
  8
0
  6
Continuous
 62
     7
370
     0
100
AcDbLine
 10
1503839.669999997
 20
4346529.619999997
 30
0.0
 11
1503847.629999996
 21
4346543.599999995
 31
0.0
  0
LINE
  5
13B
330
2
100
AcDbEntity
  8
0
  6
Continuous
 62
     7
370
     0
100
AcDbLine
 10
1503807.499999997
 20
4346531.879999997
 30
0.0
 11
1503806.209999997
 21
4346539.789999995
 31
0.0
  0
LINE
  5
13C
330
2
100
AcDbEntity
  8
0
  6
Continuous
 62
     7
370
     0
100
AcDbLine
 10
1503684.019999998
 20
4346359.399999996
 30
0.0
 11
1503690.109999998
 21
4346360.609999997
 31
0.0
  0
LINE
  5
13D
330
2
100
AcDbEntity
  8
0
  6
Continuous
 62
     7
370
     0
100
AcDbLine
 10
1503690.879999997
 20
4346354.659999996
 30
0.0
 11
1503694.799999998
 21
4346355.959999995
 31
0.0
  0
LINE
  5
13E
330
2
100
AcDbEntity
  8
0
  6
Continuous
 62
     7
370
     0
100
AcDbLine
 10
1503692.229999997
 20
4346353.329999996
 30
0.0
 11
1503697.499999998
 21
4346353.549999997
 31
0.0
  0
LINE
  5
13F
330
2
100
AcDbEntity
  8
0
  6
Continuous
 62
     7
370
     0
100
AcDbLine
 10
1503695.129999998
 20
4346350.499999998
 30
0.0
 11
1503699.499999997
 21
4346350.339999996
 31
0.0
  0
LWPOLYLINE
  5
140
330
2
100
AcDbEntity
  8
0
  6
Continuous
 62
     7
370
     0
100
AcDbPolyline
 90
        3
 70
   128
 43
0.0
 10
1503770.719999996
 20
4346531.539999997
 10
1503764.049999997
 20
4346528.029999998
 10
1503754.669999997
 20
4346543.779999995
  0
LINE
  5
141
330
2
100
AcDbEntity
  8
0
  6
Continuous
 62
     7
370
     0
100
AcDbLine
 10
1503752.939999997
 20
4346541.609999997
 30
0.0
 11
1503766.099999998
 21
4346530.839999996
 31
0.0
  0
LINE
  5
142
330
2
100
AcDbEntity
  8
0
  6
Continuous
 62
     7
370
     0
100
AcDbLine
 10
1503766.059999997
 20
4346525.569999998
 30
0.0
 11
1503767.939999997
 21
4346533.349999996
 31
0.0
  0
LWPOLYLINE
  5
143
330
2
100
AcDbEntity
  8
0
  6
Continuous
 62
     7
370
     0
100
AcDbPolyline
 90
        3
 70
   128
 43
0.0
 10
1503999.999999998
 20
4346493.291825764
 10
1503997.749999997
 20
4346494.469999997
 10
1503988.259999997
 20
4346501.879999997
  0
LWPOLYLINE
  5
144
330
2
100
AcDbEntity
  8
0
  6
Continuous
 62
     7
370
     0
100
AcDbPolyline
 90
        3
 70
   128
 43
0.0
 10
1503999.999999998
 20
4346494.104330544
 10
1503998.379999998
 20
4346495.359999997
 10
1503987.709999998
 20
4346500.909999998
  0
LWPOLYLINE
  5
145
330
2
100
AcDbEntity
  8
0
  6
Continuous
 62
     7
370
     0
100
AcDbPolyline
 90
        2
 70
   128
 43
0.0
 10
1503949.445470361
 20
4346293.299925513
 10
1503952.548720693
 20
4346289.045230724
  0
LWPOLYLINE
  5
146
330
2
100
AcDbEntity
  8
0
  6
Continuous
 62
     7
370
     0
100
AcDbPolyline
 90
        2
 70
   128
 43
0.0
 10
1503948.449999998
 20
4346291.839999998
 10
1503953.544191055
 20
4346290.505156237
  0
LWPOLYLINE
  5
147
330
2
100
AcDbEntity
  8
0
  6
Continuous
 62
     7
370
     0
100
AcDbPolyline
 90
        2
 70
   128
 43
0.0
 10
1503954.240044452
 20
4346291.522172741
 10
1503957.649999998
 20
4346286.909999998
  0
LWPOLYLINE
  5
148
330
2
100
AcDbEntity
  8
0
  6
Continuous
 62
     7
370
     0
100
AcDbPolyline
 90
        2
 70
   128
 43
0.0
 10
1503953.176615813
 20
4346289.965025285
 10
1503958.713428636
 20
4346288.467147457
  0
LWPOLYLINE
  5
149
330
2
100
AcDbEntity
  8
0
  6
Continuous
 62
     7
370
     0
100
AcDbPolyline
 90
        2
 70
   128
 43
0.0
 10
1503950.303559001
 20
4346297.952230613
 10
1503949.44547036
 20
4346293.299925513
  0
LWPOLYLINE
  5
14A
330
2
100
AcDbEntity
  8
0
  6
Continuous
 62
     7
370
     0
100
AcDbPolyline
 90
        2
 70
   128
 43
0.0
 10
1503947.99884404
 20
4346294.184924231
 10
1503951.750185321
 20
4346297.067231892
  0
LWPOLYLINE
  5
14B
330
2
100
AcDbEntity
  8
0
  6
Continuous
 62
     7
370
     0
100
AcDbPolyline
 90
        2
 70
   128
 43
0.0
 10
1503895.460024231
 20
4346504.584164431
 10
1503887.339975765
 20
4346490.795835566
  0
LWPOLYLINE
  5
14C
330
2
100
AcDbEntity
  8
0
  6
Continuous
 62
     7
370
     0
100
AcDbPolyline
 90
        2
 70
   128
 43
0.0
 10
1503885.379999998
 20
4346492.419999998
 10
1503897.419999998
 20
4346502.959999999
  0
LWPOLYLINE
  5
14D
330
2
100
AcDbEntity
  8
0
  6
Continuous
 62
     7
370
     0
100
AcDbPolyline
 90
        2
 70
   128
 43
0.0
 10
1503869.131023318
 20
4346539.046591591
 10
1503869.096924026
 20
4346528.756947342
  0
LWPOLYLINE
  5
14E
330
2
100
AcDbEntity
  8
0
  6
Continuous
 62
     5
370
    30
100
AcDbPolyline
 90
        3
 70
   128
 43
0.0
 10
1503701.849999998
 20
4346353.039999997
 10
1503696.669999998
 20
4346358.009999995
 10
1503700.259999999
 20
4346361.749999996
  0
LWPOLYLINE
  5
14F
330
2
100
AcDbEntity
  8
0
  6
Continuous
 62
     7
370
    13
100
AcDbPolyline
 90
       30
 70
   129
 43
0.0
 10
1503999.999999998
 20
4346493.036999999
 10
1503987.709999998
 20
4346500.909999998
 10
1503987.129999998
 20
4346499.999999998
 10
1503980.859999997
 20
4346504.009999996
 10
1503981.379999998
 20
4346504.829999999
 10
1503961.199999997
 20
4346517.729999997
 10
1503960.669999997
 20
4346516.889999999
 10
1503960.419999998
 20
4346517.049999997
 10
1503960.419999998
 20
4346517.049999997
 10
1503955.759999997
 20
4346520.019999997
 10
1503955.759999997
 20
4346520.019999997
 10
1503954.259999997
 20
4346520.969999997
 10
1503955.319999998
 20
4346522.749999998
 10
1503956.459999997
 20
4346522.019999998
 10
1503955.729999997
 20
4346520.889999998
 10
1503960.069999997
 20
4346518.099999998
 10
1503960.849999997
 20
4346519.309999997
 10
1503982.959999998
 20
4346505.129999997
 10
1503982.239999998
 20
4346504.019999995
 10
1503986.589999998
 20
4346501.219999997
 10
1503987.379999997
 20
4346502.449999999
 10
1503999.999999998
 20
4346494.317999998
 10
1504009.509999997
 20
4346488.189999997
 10
1504008.759999998
 20
4346487.019999997
 10
1504013.049999997
 20
4346484.249999998
 10
1504013.959999997
 20
4346485.649999998
 10
1504014.969999996
 20
4346484.999999998
 10
1504013.609999997
 20
4346482.959999999
 10
1504007.329999997
 20
4346486.989999998
 10
1504007.939999998
 20
4346487.949999999
  0
INSERT
  5
150
330
2
100
AcDbEntity
  8
0
  6
Continuous
 62
     3
370
     0
100
AcDbBlockReference
  2
albero_1
 10
1503815.439999999
 20
4346302.699999998
 30
0.0
 41
0.0100000000093132
 42
0.0100000000093132
 43
0.0100000000093132
  0
INSERT
  5
159
330
2
100
AcDbEntity
  8
0
  6
Continuous
 62
     3
370
     0
100
AcDbBlockReference
  2
albero_1
 10
1503914.329999998
 20
4346360.069999999
 30
0.0
 41
0.0100000000093132
 42
0.0100000000093132
 43
0.0100000000093132
  0
INSERT
  5
15A
330
2
100
AcDbEntity
  8
0
  6
Continuous
 62
     3
370
     0
100
AcDbBlockReference
  2
albero_1
 10
1503980.329999997
 20
4346496.730000001
 30
0.0
 41
0.0100000000093132
 42
0.0100000000093132
 43
0.0100000000093132
  0
INSERT
  5
15B
330
2
100
AcDbEntity
  8
0
  6
Continuous
 62
     3
370
     0
100
AcDbBlockReference
  2
albero_1
 10
1503939.429999998
 20
4346486.889999998
 30
0.0
 41
0.0100000000093132
 42
0.0100000000093132
 43
0.0100000000093132
  0
INSERT
  5
15C
330
2
100
AcDbEntity
  8
0
  6
Continuous
 62
     3
370
     0
100
AcDbBlockReference
  2
albero_1
 10
1503892.239999997
 20
4346404.48
 30
0.0
 41
0.0100000000093132
 42
0.0100000000093132
 43
0.0100000000093132
  0
INSERT
  5
15D
330
2
100
AcDbEntity
  8
0
  6
Continuous
 62
     3
370
     0
100
AcDbBlockReference
  2
albero_1
 10
1503937.129999998
 20
4346508.909999998
 30
0.0
 41
0.0100000000093132
 42
0.0100000000093132
 43
0.0100000000093132
  0
INSERT
  5
15E
330
2
100
AcDbEntity
  8
0
  6
Continuous
 62
     3
370
     0
100
AcDbBlockReference
  2
albero_1
 10
1503826.539999998
 20
4346520.23
 30
0.0
 41
0.0100000000093132
 42
0.0100000000093132
 43
0.0100000000093132
  0
INSERT
  5
15F
330
2
100
AcDbEntity
  8
0
  6
Continuous
 62
     3
370
     0
100
AcDbBlockReference
  2
albero_1
 10
1503842.639999998
 20
4346450.769999996
 30
0.0
 41
0.0100000000093132
 42
0.0100000000093132
 43
0.0100000000093132
  0
INSERT
  5
160
330
2
100
AcDbEntity
  8
0
  6
Continuous
 62
     3
370
     0
100
AcDbBlockReference
  2
albero_1
 10
1503877.409999998
 20
4346464.469999999
 30
0.0
 41
0.0100000000093132
 42
0.0100000000093132
 43
0.0100000000093132
  0
INSERT
  5
161
330
2
100
AcDbEntity
  8
0
  6
Continuous
 62
     3
370
     0
100
AcDbBlockReference
  2
albero_1
 10
1503927.569999996
 20
4346524.869999997
 30
0.0
 41
0.0100000000093132
 42
0.0100000000093132
 43
0.0100000000093132
  0
INSERT
  5
162
330
2
100
AcDbEntity
  8
0
  6
Continuous
 62
     3
370
     0
100
AcDbBlockReference
  2
albero_1
 10
1503802.349999998
 20
4346519.559999997
 30
0.0
 41
0.0100000000093132
 42
0.0100000000093132
 43
0.0100000000093132
  0
INSERT
  5
163
330
2
100
AcDbEntity
  8
0
  6
Continuous
 62
     3
370
     0
100
AcDbBlockReference
  2
albero_1
 10
1503766.729999997
 20
4346337.409999996
 30
0.0
 41
0.0100000000093132
 42
0.0100000000093132
 43
0.0100000000093132
  0
INSERT
  5
164
330
2
100
AcDbEntity
  8
0
  6
Continuous
 62
     3
370
     0
100
AcDbBlockReference
  2
albero_1
 10
1503656.259999998
 20
4346407.869999997
 30
0.0
 41
0.0100000000093132
 42
0.0100000000093132
 43
0.0100000000093132
  0
INSERT
  5
165
330
2
100
AcDbEntity
  8
0
  6
Continuous
 62
     3
370
     0
100
AcDbBlockReference
  2
albero_1
 10
1503724.999999997
 20
4346464.399999998
 30
0.0
 41
0.0100000000093132
 42
0.0100000000093132
 43
0.0100000000093132
  0
LWPOLYLINE
  5
166
330
2
100
AcDbEntity
  8
0
  6
FCANAL4000
 62
     5
 48
0.9999999999999998
370
     0
100
AcDbPolyline
 90
        4
 70
   128
 43
0.0
 10
1503655.829999999
 20
4346242.679999996
 10
1503631.329999998
 20
4346258.359999997
 10
1503608.169999998
 20
4346272.549999996
 10
1503596.219999998
 20
4346280.859999996
  0
LWPOLYLINE
  5
169
330
2
100
AcDbEntity
  8
0
  6
FCANAL4000
 62
     5
 48
0.9999999999999998
370
     0
100
AcDbPolyline
 90
        4
 70
   128
 43
0.0
 10
1503684.159999997
 20
4346551.829999996
 10
1503654.019999997
 20
4346519.409999997
 10
1503628.009999997
 20
4346491.209999997
 10
1503609.079999997
 20
4346469.059999995
  0
LWPOLYLINE
  5
16A
330
2
100
AcDbEntity
  8
0
  6
FCANAL4000
 62
     5
 48
0.9999999999999998
370
     0
100
AcDbPolyline
 90
        5
 70
   128
 43
0.0
 10
1503683.079999997
 20
4346567.589999996
 10
1503651.209999997
 20
4346534.089999996
 10
1503629.369999998
 20
4346510.039999997
 10
1503611.129999997
 20
4346489.739999996
 10
1503600.779999997
 20
4346477.539999997
  0
LWPOLYLINE
  5
16B
330
2
100
AcDbEntity
  8
0
  6
FCANAL4000
 62
     5
 48
0.9999999999999998
370
     0
100
AcDbPolyline
 90
        3
 70
   128
 43
0.0
 10
1503711.369999998
 20
4346532.139999997
 10
1503687.359999997
 20
4346508.799999995
 10
1503672.689999997
 20
4346493.039999997
  0
LWPOLYLINE
  5
16C
330
2
100
AcDbEntity
  8
0
  6
FILALB4000
 62
     3
 48
0.9999999999999998
370
     0
100
AcDbPolyline
 90
        2
 70
   128
 43
0.0
 10
1503707.039999998
 20
4346344.269999995
 10
1503669.449999997
 20
4346314.889999995
  0
LWPOLYLINE
  5
16E
330
2
100
AcDbEntity
  8
0
  6
FILALB4000
 62
     3
 48
0.9999999999999998
370
     0
100
AcDbPolyline
 90
        3
 70
   128
 43
0.0
 10
1503693.199999997
 20
4346301.739999996
 10
1503683.629999997
 20
4346304.549999996
 10
1503639.599999998
 20
4346321.929999998
  0
LWPOLYLINE
  5
16F
330
2
100
AcDbEntity
  8
0
  6
FILALB4000
 62
     3
 48
0.9999999999999998
370
     0
100
AcDbPolyline
 90
        2
 70
   128
 43
0.0
 10
1503651.689999998
 20
4346319.809999997
 10
1503683.679999998
 20
4346345.629999997
  0
LWPOLYLINE
  5
170
330
2
100
AcDbEntity
  8
0
  6
FILALB4000
 62
     3
 48
0.9999999999999998
370
     0
100
AcDbPolyline
 90
        2
 70
   128
 43
0.0
 10
1503663.889999997
 20
4346339.979999998
 10
1503680.979999998
 20
4346352.939999997
  0
LWPOLYLINE
  5
171
330
2
100
AcDbEntity
  8
0
  6
MSD4000
 62
     7
 48
0.9999999999999998
370
     0
100
AcDbPolyline
 90
        3
 70
     0
 43
0.0
 10
1503923.469999998
 20
4346237.599999997
 10
1503921.899999998
 20
4346238.439999997
 10
1503923.829999999
 20
4346241.689999998
  0
LWPOLYLINE
  5
173
330
2
100
AcDbEntity
  8
0
  6
MSD4000
 62
     7
 48
0.9999999999999998
370
     0
100
AcDbPolyline
 90
        2
 70
     0
 43
0.0
 10
1503930.219999998
 20
4346252.139999997
 10
1503934.959999998
 20
4346259.889999997
  0
LWPOLYLINE
  5
174
330
2
100
AcDbEntity
  8
0
  6
MSD4000
 62
     7
 48
0.9999999999999998
370
     0
100
AcDbPolyline
 90
        2
 70
     0
 43
0.0
 10
1503963.279999999
 20
4346238.392999999
 10
1503965.469999998
 20
4346242.299999999
  0
LWPOLYLINE
  5
175
330
2
100
AcDbEntity
  8
0
  6
MSD4000
 62
     7
 48
0.9999999999999998
370
     0
100
AcDbPolyline
 90
        2
 70
     0
 43
0.0
 10
1503959.927999999
 20
4346245.495999999
 10
1503957.673999998
 20
4346241.618999997
  0
LWPOLYLINE
  5
176
330
2
100
AcDbEntity
  8
0
  6
MSD4000
 62
     7
 48
0.9999999999999998
370
     0
100
AcDbPolyline
 90
        2
 70
     0
 43
0.0
 10
1503952.629999998
 20
4346244.521999998
 10
1503954.807999998
 20
4346248.446999997
  0
LWPOLYLINE
  5
177
330
2
100
AcDbEntity
  8
0
  6
MSD4000
 62
     7
 48
0.9999999999999998
370
     0
100
AcDbPolyline
 90
        2
 70
     0
 43
0.0
 10
1503950.158999999
 20
4346251.127999996
 10
1503947.632999998
 20
4346247.397999998
  0
LWPOLYLINE
  5
178
330
2
100
AcDbEntity
  8
0
  6
MSD4000
 62
     7
 48
0.9999999999999998
370
     0
100
AcDbPolyline
 90
        2
 70
     0
 43
0.0
 10
1503937.960999998
 20
4346252.963999997
 10
1503940.044999998
 20
4346256.958999997
  0
LWPOLYLINE
  5
179
330
2
100
AcDbEntity
  8
0
  6
MSD4000
 62
     7
 48
0.9999999999999998
370
     0
100
AcDbPolyline
 90
        2
 70
     0
 43
0.0
 10
1503937.009999999
 20
4346253.511999998
 10
1503934.699999999
 20
4346249.611999998
  0
LWPOLYLINE
  5
17A
330
2
100
AcDbEntity
  8
0
  6
MSD4000
 62
     7
 48
0.9999999999999998
370
     0
100
AcDbPolyline
 90
        2
 70
     0
 43
0.0
 10
1503939.351999999
 20
4346246.985999997
 10
1503941.610999998
 20
4346250.863999998
  0
LWPOLYLINE
  5
17B
330
2
100
AcDbEntity
  8
0
  6
MSD4000
 62
     7
 48
0.9999999999999998
370
     0
100
AcDbPolyline
 90
        2
 70
     0
 43
0.0
 10
1503950.983999998
 20
4346245.468999996
 10
1503948.701999999
 20
4346241.708999999
  0
LWPOLYLINE
  5
17C
330
2
100
AcDbEntity
  8
0
  6
MSD4000
 62
     7
 48
0.9999999999999998
370
     0
100
AcDbPolyline
 90
        2
 70
     0
 43
0.0
 10
1503940.869999999
 20
4346270.149999998
 10
1503943.099999998
 20
4346273.569999998
  0
LWPOLYLINE
  5
17D
330
2
100
AcDbEntity
  8
0
  6
MSD4000
 62
     7
 48
0.9999999999999998
370
     0
100
AcDbPolyline
 90
        2
 70
     0
 43
0.0
 10
1503944.749999999
 20
4346272.619999998
 10
1503945.689999998
 20
4346272.089999998
  0
LWPOLYLINE
  5
17E
330
2
100
AcDbEntity
  8
0
  6
MSD4000
 62
     7
 48
0.9999999999999998
370
     0
100
AcDbPolyline
 90
        2
 70
     0
 43
0.0
 10
1503946.469999998
 20
4346271.639999996
 10
1503949.749999998
 20
4346269.749999998
  0
LWPOLYLINE
  5
17F
330
2
100
AcDbEntity
  8
0
  6
MSD4000
 62
     7
 48
0.9999999999999998
370
     0
100
AcDbPolyline
 90
        2
 70
     0
 43
0.0
 10
1503952.579999998
 20
4346268.119999998
 10
1503953.479999998
 20
4346267.599999997
  0
LWPOLYLINE
  5
180
330
2
100
AcDbEntity
  8
0
  6
MSD4000
 62
     7
 48
0.9999999999999998
370
     0
100
AcDbPolyline
 90
        2
 70
     0
 43
0.0
 10
1503955.257999998
 20
4346266.575999998
 10
1503959.679999997
 20
4346264.029999997
  0
LWPOLYLINE
  5
181
330
2
100
AcDbEntity
  8
0
  6
MSD4000
 62
     7
 48
0.9999999999999998
370
     0
100
AcDbPolyline
 90
        2
 70
     0
 43
0.0
 10
1503965.149999998
 20
4346260.879999998
 10
1503968.609999998
 20
4346258.889999996
  0
LWPOLYLINE
  5
182
330
2
100
AcDbEntity
  8
0
  6
MSD4000
 62
     7
 48
0.9999999999999998
370
     0
100
AcDbPolyline
 90
        2
 70
     0
 43
0.0
 10
1503977.159999998
 20
4346253.969999997
 10
1503979.669999998
 20
4346252.519999997
  0
LWPOLYLINE
  5
183
330
2
100
AcDbEntity
  8
0
  6
MSD4000
 62
     7
 48
0.9999999999999998
370
     0
100
AcDbPolyline
 90
        2
 70
     0
 43
0.0
 10
1503982.959999998
 20
4346250.629999999
 10
1503983.549999998
 20
4346250.289999997
  0
LWPOLYLINE
  5
184
330
2
100
AcDbEntity
  8
0
  6
MSD4000
 62
     7
 48
0.9999999999999998
370
     0
100
AcDbPolyline
 90
        2
 70
     0
 43
0.0
 10
1503985.479999998
 20
4346249.179999999
 10
1503986.109999998
 20
4346248.819999998
  0
LWPOLYLINE
  5
185
330
2
100
AcDbEntity
  8
0
  6
MSD4000
 62
     7
 48
0.9999999999999998
370
     0
100
AcDbPolyline
 90
        3
 70
     0
 43
0.0
 10
1503986.929999998
 20
4346248.349999998
 10
1503988.579999998
 20
4346247.389999996
 10
1503986.609999999
 20
4346243.779999997
  0
LWPOLYLINE
  5
186
330
2
100
AcDbEntity
  8
0
  6
MSD4000
 62
     7
 48
0.9999999999999998
370
     0
100
AcDbPolyline
 90
        2
 70
     0
 43
0.0
 10
1503982.959999998
 20
4346250.629999999
 10
1503981.059999998
 20
4346246.979999998
  0
LWPOLYLINE
  5
187
330
2
100
AcDbEntity
  8
0
  6
MSD4000
 62
     7
 48
0.9999999999999998
370
     0
100
AcDbPolyline
 90
        2
 70
     0
 43
0.0
 10
1503978.237999998
 20
4346253.346999997
 10
1503977.579999998
 20
4346252.259999998
  0
LWPOLYLINE
  5
188
330
2
100
AcDbEntity
  8
0
  6
MSD4000
 62
     7
 48
0.9999999999999998
370
     0
100
AcDbPolyline
 90
        2
 70
     0
 43
0.0
 10
1503973.898999998
 20
4346251.107999997
 10
1503975.859999999
 20
4346254.709999997
  0
LWPOLYLINE
  5
189
330
2
100
AcDbEntity
  8
0
  6
MSD4000
 62
     7
 48
0.9999999999999998
370
     0
100
AcDbPolyline
 90
        2
 70
     0
 43
0.0
 10
1503970.899999998
 20
4346257.569999998
 10
1503970.263999998
 20
4346256.502999996
  0
LWPOLYLINE
  5
18A
330
2
100
AcDbEntity
  8
0
  6
MSD4000
 62
     7
 48
0.9999999999999998
370
     0
100
AcDbPolyline
 90
        2
 70
     0
 43
0.0
 10
1503965.848999999
 20
4346255.749
 10
1503967.906999998
 20
4346259.293999999
  0
LWPOLYLINE
  5
18B
330
2
100
AcDbEntity
  8
0
  6
MSD4000
 62
     7
 48
0.9999999999999998
370
     0
100
AcDbPolyline
 90
        2
 70
     0
 43
0.0
 10
1503965.149999998
 20
4346260.879999998
 10
1503964.499999998
 20
4346259.819999998
  0
LWPOLYLINE
  5
18C
330
2
100
AcDbEntity
  8
0
  6
MSD4000
 62
     7
 48
0.9999999999999998
370
     0
100
AcDbPolyline
 90
        2
 70
     0
 43
0.0
 10
1503960.799999998
 20
4346258.659999997
 10
1503962.979999998
 20
4346262.129999998
  0
LWPOLYLINE
  5
18D
330
2
100
AcDbEntity
  8
0
  6
MSD4000
 62
     7
 48
0.9999999999999998
370
     0
100
AcDbPolyline
 90
        2
 70
     0
 43
0.0
 10
1503960.702999999
 20
4346263.443999998
 10
1503958.618999999
 20
4346259.917999997
  0
LWPOLYLINE
  5
18E
330
2
100
AcDbEntity
  8
0
  6
MSD4000
 62
     7
 48
0.9999999999999998
370
     0
100
AcDbPolyline
 90
        2
 70
     0
 43
0.0
 10
1503955.998999997
 20
4346261.427999998
 10
1503958.029999998
 20
4346264.979999999
  0
LWPOLYLINE
  5
18F
330
2
100
AcDbEntity
  8
0
  6
MSD4000
 62
     7
 48
0.9999999999999998
370
     0
100
AcDbPolyline
 90
        2
 70
     0
 43
0.0
 10
1503955.257999998
 20
4346266.575999998
 10
1503954.639999998
 20
4346265.479999998
  0
LWPOLYLINE
  5
190
330
2
100
AcDbEntity
  8
0
  6
MSD4000
 62
     7
 48
0.9999999999999998
370
     0
100
AcDbPolyline
 90
        2
 70
     0
 43
0.0
 10
1503950.980999998
 20
4346264.320999998
 10
1503953.048999999
 20
4346267.848999999
  0
LWPOLYLINE
  5
191
330
2
100
AcDbEntity
  8
0
  6
MSD4000
 62
     7
 48
0.9999999999999998
370
     0
100
AcDbPolyline
 90
        2
 70
     0
 43
0.0
 10
1503950.699999998
 20
4346269.199999999
 10
1503950.159999998
 20
4346268.239999998
  0
LWPOLYLINE
  5
192
330
2
100
AcDbEntity
  8
0
  6
MSD4000
 62
     7
 48
0.9999999999999998
370
     0
100
AcDbPolyline
 90
        2
 70
     0
 43
0.0
 10
1503946.066999999
 20
4346267.153999998
 10
1503948.150999999
 20
4346270.671999999
  0
LWPOLYLINE
  5
193
330
2
100
AcDbEntity
  8
0
  6
MSD4000
 62
     7
 48
0.9999999999999998
370
     0
100
AcDbPolyline
 90
        2
 70
     0
 43
0.0
 10
1503985.766999998
 20
4346249.015999999
 10
1503985.189999998
 20
4346247.949999997
  0
LWPOLYLINE
  5
194
330
2
100
AcDbEntity
  8
0
  6
MSD4000
 62
     7
 48
0.9999999999999998
370
     0
100
AcDbPolyline
 90
        2
 70
     0
 43
0.0
 10
1503980.259999998
 20
4346250.809999998
 10
1503980.849999998
 20
4346251.849999998
  0
LWPOLYLINE
  5
195
330
2
100
AcDbEntity
  8
0
  6
MSD4000
 62
     7
 48
0.9999999999999998
370
     0
100
AcDbPolyline
 90
        2
 70
     0
 43
0.0
 10
1503944.820999998
 20
4346271.448999998
 10
1503945.318999998
 20
4346272.298999998
  0
LWPOLYLINE
  5
196
330
2
100
AcDbEntity
  8
0
  6
MSD4000
 62
     7
 48
0.9999999999999998
370
     0
100
AcDbPolyline
 90
        2
 70
     0
 43
0.0
 10
1503996.149999998
 20
4346322.089999998
 10
1503987.039999998
 20
4346320.649999999
  0
LWPOLYLINE
  5
197
330
2
100
AcDbEntity
  8
0
  6
MSD4000
 62
     7
 48
0.9999999999999998
370
     0
100
AcDbPolyline
 90
        2
 70
     0
 43
0.0
 10
1503979.699999999
 20
4346311.449999998
 10
1503980.775999999
 20
4346311.527999999
  0
LWPOLYLINE
  5
198
330
2
100
AcDbEntity
  8
0
  6
MSD4000
 62
     7
 48
0.9999999999999998
370
     0
100
AcDbPolyline
 90
        2
 70
     0
 43
0.0
 10
1503992.879999998
 20
4346312.299999997
 10
1503994.219999998
 20
4346312.379999998
  0
LWPOLYLINE
  5
199
330
2
100
AcDbEntity
  8
0
  6
MSD4000
 62
     7
 48
0.9999999999999998
370
     0
100
AcDbPolyline
 90
        2
 70
     0
 43
0.0
 10
1503942.389999997
 20
4346297.429999998
 10
1503947.149999998
 20
4346301.839999997
  0
LWPOLYLINE
  5
19A
330
2
100
AcDbEntity
  8
0
  6
MSD4000
 62
     7
 48
0.9999999999999998
370
     0
100
AcDbPolyline
 90
        2
 70
     0
 43
0.0
 10
1503967.069999998
 20
4346298.599999998
 10
1503970.949999998
 20
4346296.379999999
  0
LWPOLYLINE
  5
19B
330
2
100
AcDbEntity
  8
0
  6
MSD4000
 62
     7
 48
0.9999999999999998
370
     0
100
AcDbPolyline
 90
        2
 70
     0
 43
0.0
 10
1503972.519999997
 20
4346295.469999997
 10
1503984.039999998
 20
4346288.859999997
  0
LWPOLYLINE
  5
19C
330
2
100
AcDbEntity
  8
0
  6
MSD4000
 62
     7
 48
0.9999999999999998
370
     0
100
AcDbPolyline
 90
        2
 70
     0
 43
0.0
 10
1503984.939999998
 20
4346288.339999998
 10
1503989.208999997
 20
4346285.867999997
  0
LWPOLYLINE
  5
19D
330
2
100
AcDbEntity
  8
0
  6
MSD4000
 62
     7
 48
0.9999999999999998
370
     0
100
AcDbPolyline
 90
        2
 70
     0
 43
0.0
 10
1503975.389999998
 20
4346292.229999998
 10
1503976.167999998
 20
4346293.376999999
  0
LWPOLYLINE
  5
19E
330
2
100
AcDbEntity
  8
0
  6
MSD4000
 62
     7
 48
0.9999999999999998
370
     0
100
AcDbPolyline
 90
        2
 70
     0
 43
0.0
 10
1503982.279999998
 20
4346264.779999997
 10
1503975.819999998
 20
4346268.459999997
  0
LWPOLYLINE
  5
19F
330
2
100
AcDbEntity
  8
0
  6
MSD4000
 62
     7
 48
0.9999999999999998
370
     0
100
AcDbPolyline
 90
        2
 70
     0
 43
0.0
 10
1503972.489999998
 20
4346270.359999997
 10
1503964.919999998
 20
4346274.669999998
  0
LWPOLYLINE
  5
1A0
330
2
100
AcDbEntity
  8
0
  6
MSD4000
 62
     7
 48
0.9999999999999998
370
     0
100
AcDbPolyline
 90
        2
 70
     0
 43
0.0
 10
1503962.869999999
 20
4346275.839999998
 10
1503961.469999999
 20
4346276.629999999
  0
LWPOLYLINE
  5
1A1
330
2
100
AcDbEntity
  8
0
  6
MSD4000
 62
     7
 48
0.9999999999999998
370
     0
100
AcDbPolyline
 90
        2
 70
     0
 43
0.0
 10
1503958.899999999
 20
4346278.089999998
 10
1503956.999999999
 20
4346279.179999998
  0
LWPOLYLINE
  5
1A2
330
2
100
AcDbEntity
  8
0
  6
MSD4000
 62
     7
 48
0.9999999999999998
370
     0
100
AcDbPolyline
 90
        3
 70
     0
 43
0.0
 10
1503938.919999998
 20
4346337.709999997
 10
1503943.049999998
 20
4346326.179999998
 10
1503933.939999998
 20
4346323.339999998
  0
LWPOLYLINE
  5
1A3
330
2
100
AcDbEntity
  8
0
  6
MSD4000
 62
     7
 48
0.9999999999999998
370
     0
100
AcDbPolyline
 90
        2
 70
     0
 43
0.0
 10
1503889.089999998
 20
4346315.169999997
 10
1503853.349999998
 20
4346319.139999997
  0
LWPOLYLINE
  5
1A4
330
2
100
AcDbEntity
  8
0
  6
MSD4000
 62
     7
 48
0.9999999999999998
370
     0
100
AcDbPolyline
 90
        5
 70
     0
 43
0.0
 10
1503849.239999999
 20
4346319.569999998
 10
1503824.699999998
 20
4346321.979999998
 10
1503818.449999998
 20
4346321.829999998
 10
1503797.719999998
 20
4346323.949999996
 10
1503784.358999998
 20
4346327.269999997
  0
LWPOLYLINE
  5
1A5
330
2
100
AcDbEntity
  8
0
  6
MSD4000
 62
     7
 48
0.9999999999999998
370
     0
100
AcDbPolyline
 90
        2
 70
     0
 43
0.0
 10
1503781.450999998
 20
4346328.380999997
 10
1503771.419999998
 20
4346332.549999997
  0
LWPOLYLINE
  5
1A6
330
2
100
AcDbEntity
  8
0
  6
MSD4000
 62
     7
 48
0.9999999999999998
370
     0
100
AcDbPolyline
 90
        3
 70
     0
 43
0.0
 10
1503881.369999997
 20
4346391.599999997
 10
1503900.859999998
 20
4346373.949999997
 10
1503900.639999997
 20
4346372.799999997
  0
LWPOLYLINE
  5
1A7
330
2
100
AcDbEntity
  8
0
  6
MSD4000
 62
     7
 48
0.9999999999999998
370
     0
100
AcDbPolyline
 90
        4
 70
     0
 43
0.0
 10
1503902.769999998
 20
4346370.949999998
 10
1503903.959999998
 20
4346371.199999999
 10
1503937.739999997
 20
4346340.979999999
 10
1503938.289999998
 20
4346339.449999997
  0
LWPOLYLINE
  5
1A8
330
2
100
AcDbEntity
  8
0
  6
MSD4000
 62
     7
 48
0.9999999999999998
370
     0
100
AcDbPolyline
 90
        2
 70
     0
 43
0.0
 10
1503846.799999998
 20
4346422.589999997
 10
1503861.659999998
 20
4346409.229999999
  0
LWPOLYLINE
  5
1A9
330
2
100
AcDbEntity
  8
0
  6
MSD4000
 62
     7
 48
0.9999999999999998
370
     0
100
AcDbPolyline
 90
        2
 70
     0
 43
0.0
 10
1503843.779999998
 20
4346350.989999998
 10
1503846.069999998
 20
4346349.199999997
  0
LWPOLYLINE
  5
1AA
330
2
100
AcDbEntity
  8
0
  6
MSD4000
 62
     7
 48
0.9999999999999998
370
     0
100
AcDbPolyline
 90
        2
 70
     0
 43
0.0
 10
1503847.239999998
 20
4346348.229999998
 10
1503844.989999998
 20
4346345.679999997
  0
LWPOLYLINE
  5
1AB
330
2
100
AcDbEntity
  8
0
  6
MSD4000
 62
     7
 48
0.9999999999999998
370
     0
100
AcDbPolyline
 90
        5
 70
     0
 43
0.0
 10
1503960.099999997
 20
4346456.799999999
 10
1503952.169999998
 20
4346451.449999999
 10
1503957.419999997
 20
4346443.979999998
 10
1503950.439999998
 20
4346439.359999999
 10
1503948.979999998
 20
4346437.799999999
  0
LWPOLYLINE
  5
1AC
330
2
100
AcDbEntity
  8
0
  6
MSD4000
 62
     7
 48
0.9999999999999998
370
     0
100
AcDbPolyline
 90
        4
 70
     0
 43
0.0
 10
1503947.929999998
 20
4346436.469999998
 10
1503943.919999997
 20
4346429.049999999
 10
1503935.949999998
 20
4346433.599999998
 10
1503926.249999998
 20
4346415.859999997
  0
LWPOLYLINE
  5
1AD
330
2
100
AcDbEntity
  8
0
  6
MSD4000
 62
     7
 48
0.9999999999999998
370
     0
100
AcDbPolyline
 90
        7
 70
     0
 43
0.0
 10
1503925.169999997
 20
4346414.139999997
 10
1503916.139999997
 20
4346398.609999997
 10
1503924.179999997
 20
4346393.949999997
 10
1503918.089999998
 20
4346382.979999997
 10
1503915.369999998
 20
4346381.989999998
 10
1503914.129999997
 20
4346382.019999998
 10
1503894.039999998
 20
4346400.269999995
  0
LWPOLYLINE
  5
1AE
330
2
100
AcDbEntity
  8
0
  6
MSD4000
 62
     7
 48
0.9999999999999998
370
     0
100
AcDbPolyline
 90
        2
 70
     0
 43
0.0
 10
1503892.779999998
 20
4346401.409999997
 10
1503869.649999998
 20
4346422.229999999
  0
LWPOLYLINE
  5
1AF
330
2
100
AcDbEntity
  8
0
  6
MSD4000
 62
     7
 48
0.9999999999999998
370
     0
100
AcDbPolyline
 90
        2
 70
     0
 43
0.0
 10
1503868.409999997
 20
4346423.339999998
 10
1503858.399999997
 20
4346432.249999998
  0
LWPOLYLINE
  5
1B0
330
2
100
AcDbEntity
  8
0
  6
MSD4000
 62
     7
 48
0.9999999999999998
370
     0
100
AcDbPolyline
 90
        2
 70
     0
 43
0.0
 10
1503930.263999997
 20
4346385.558999998
 10
1503936.382999998
 20
4346396.274999998
  0
LWPOLYLINE
  5
1B1
330
2
100
AcDbEntity
  8
0
  6
MSD4000
 62
     7
 48
0.9999999999999998
370
     0
100
AcDbPolyline
 90
        2
 70
     0
 43
0.0
 10
1503937.815999998
 20
4346398.736999997
 10
1503943.331999997
 20
4346408.816
  0
LWPOLYLINE
  5
1B2
330
2
100
AcDbEntity
  8
0
  6
MSD4000
 62
     7
 48
0.9999999999999998
370
     0
100
AcDbPolyline
 90
        2
 70
     0
 43
0.0
 10
1503944.840999998
 20
4346411.243999999
 10
1503950.544999997
 20
4346421.683999999
  0
LWPOLYLINE
  5
1B3
330
2
100
AcDbEntity
  8
0
  6
MSD4000
 62
     7
 48
0.9999999999999998
370
     0
100
AcDbPolyline
 90
        3
 70
     0
 43
0.0
 10
1503951.893999998
 20
4346424.185999999
 10
1503956.119999998
 20
4346431.479999997
 10
1503965.629999998
 20
4346438.089999998
  0
LWPOLYLINE
  5
1B4
330
2
100
AcDbEntity
  8
0
  6
MSD4000
 62
     7
 48
0.9999999999999998
370
     0
100
AcDbPolyline
 90
        2
 70
     0
 43
0.0
 10
1503968.469999998
 20
4346440.069999998
 10
1503979.409999997
 20
4346447.679999998
  0
LWPOLYLINE
  5
1B5
330
2
100
AcDbEntity
  8
0
  6
MSD4000
 62
     7
 48
0.9999999999999998
370
     0
100
AcDbPolyline
 90
        2
 70
     0
 43
0.0
 10
1503982.085999997
 20
4346449.551999998
 10
1503991.833999998
 20
4346456.307999998
  0
LWPOLYLINE
  5
1B6
330
2
100
AcDbEntity
  8
0
  6
MSD4000
 62
     7
 48
0.9999999999999998
370
     0
100
AcDbPolyline
 90
        3
 70
     0
 43
0.0
 10
1503880.919999998
 20
4346459.549999997
 10
1503901.319999997
 20
4346483.699999998
 10
1503912.089999998
 20
4346496.45
  0
LWPOLYLINE
  5
1B7
330
2
100
AcDbEntity
  8
0
  6
MSD4000
 62
     7
 48
0.9999999999999998
370
     0
100
AcDbPolyline
 90
        4
 70
     0
 43
0.0
 10
1503931.759999997
 20
4346520.039999997
 10
1503936.339999998
 20
4346518.589999998
 10
1503942.879999996
 20
4346513.889999997
 10
1503944.139999996
 20
4346511.589999998
  0
LWPOLYLINE
  5
1B8
330
2
100
AcDbEntity
  8
0
  6
MSD4000
 62
     7
 48
0.9999999999999998
370
     0
100
AcDbPolyline
 90
        6
 70
     0
 43
0.0
 10
1503946.109999997
 20
4346511.979999998
 10
1503945.969999997
 20
4346513.019999997
 10
1503946.469999997
 20
4346513.999999998
 10
1503949.399999997
 20
4346515.609999998
 10
1503951.919999997
 20
4346518.749999998
 10
1503954.059999997
 20
4346517.409999997
  0
LWPOLYLINE
  5
1B9
330
2
100
AcDbEntity
  8
0
  6
MSD4000
 62
     7
 48
0.9999999999999998
370
     0
100
AcDbPolyline
 90
        6
 70
     0
 43
0.0
 10
1503961.489999997
 20
4346531.989999997
 10
1503963.469999997
 20
4346534.549999999
 10
1503964.159999997
 20
4346535.039999999
 10
1503964.769999997
 20
4346535.369999997
 10
1503965.299999997
 20
4346535.519999997
 10
1503966.149999997
 20
4346534.879999998
  0
LWPOLYLINE
  5
1BA
330
2
100
AcDbEntity
  8
0
  6
MSD4000
 62
     7
 48
0.9999999999999998
370
     0
100
AcDbPolyline
 90
        2
 70
     0
 43
0.0
 10
1503970.449999997
 20
4346533.279999997
 10
1503973.369999997
 20
4346531.429999997
  0
LWPOLYLINE
  5
1BB
330
2
100
AcDbEntity
  8
0
  6
MSD4000
 62
     7
 48
0.9999999999999998
370
     0
100
AcDbPolyline
 90
        3
 70
     0
 43
0.0
 10
1503974.179999997
 20
4346530.909999998
 10
1503975.879999997
 20
4346529.829999998
 10
1503972.720999997
 20
4346524.610999995
  0
LWPOLYLINE
  5
1BC
330
2
100
AcDbEntity
  8
0
  6
MSD4000
 62
     7
 48
0.9999999999999998
370
     0
100
AcDbPolyline
 90
        2
 70
     0
 43
0.0
 10
1503978.429999996
 20
4346528.209999997
 10
1503983.589999997
 20
4346524.929999995
  0
LWPOLYLINE
  5
1BD
330
2
100
AcDbEntity
  8
0
  6
MSD4000
 62
     7
 48
0.9999999999999998
370
     0
100
AcDbPolyline
 90
        2
 70
     0
 43
0.0
 10
1503980.819999997
 20
4346526.690999999
 10
1503976.625999997
 20
4346519.852999998
  0
LWPOLYLINE
  5
1BE
330
2
100
AcDbEntity
  8
0
  6
MSD4000
 62
     7
 48
0.9999999999999998
370
     0
100
AcDbPolyline
 90
        2
 70
     0
 43
0.0
 10
1503986.049999998
 20
4346523.359999999
 10
1503983.039999998
 20
4346518.089999999
  0
LWPOLYLINE
  5
1BF
330
2
100
AcDbEntity
  8
0
  6
MSD4000
 62
     7
 48
0.9999999999999998
370
     0
100
AcDbPolyline
 90
        2
 70
     0
 43
0.0
 10
1503988.649999997
 20
4346521.709999997
 10
1503991.509999997
 20
4346519.889999997
  0
LWPOLYLINE
  5
1C0
330
2
100
AcDbEntity
  8
0
  6
MSD4000
 62
     7
 48
0.9999999999999998
370
     0
100
AcDbPolyline
 90
        2
 70
     0
 43
0.0
 10
1503994.199999997
 20
4346518.179999998
 10
1503991.039999998
 20
4346512.999999999
  0
LWPOLYLINE
  5
1C1
330
2
100
AcDbEntity
  8
0
  6
MSD4000
 62
     7
 48
0.9999999999999998
370
     0
100
AcDbPolyline
 90
        2
 70
     0
 43
0.0
 10
1503992.799999998
 20
4346497.639999999
 10
1503990.679999998
 20
4346494.429999998
  0
LWPOLYLINE
  5
1C2
330
2
100
AcDbEntity
  8
0
  6
MSD4000
 62
     7
 48
0.9999999999999998
370
     0
100
AcDbPolyline
 90
        2
 70
     0
 43
0.0
 10
1503976.249999998
 20
4346508.109999998
 10
1503974.329999997
 20
4346504.679999998
  0
LWPOLYLINE
  5
1C3
330
2
100
AcDbEntity
  8
0
  6
MSD4000
 62
     7
 48
0.9999999999999998
370
     0
100
AcDbPolyline
 90
        2
 70
     0
 43
0.0
 10
1503971.219999997
 20
4346511.319999998
 10
1503969.169999997
 20
4346507.919999997
  0
LWPOLYLINE
  5
1C4
330
2
100
AcDbEntity
  8
0
  6
MSD4000
 62
     7
 48
0.9999999999999998
370
     0
100
AcDbPolyline
 90
        2
 70
     0
 43
0.0
 10
1503966.089999997
 20
4346514.599999998
 10
1503963.959999997
 20
4346511.199999999
  0
LWPOLYLINE
  5
1C5
330
2
100
AcDbEntity
  8
0
  6
MSD4000
 62
     7
 48
0.9999999999999998
370
     0
100
AcDbPolyline
 90
        4
 70
     0
 43
0.0
 10
1503803.949999997
 20
4346527.509999997
 10
1503794.269999997
 20
4346515.889999997
 10
1503779.909999997
 20
4346530.549999997
 10
1503786.009999998
 20
4346538.519999998
  0
LWPOLYLINE
  5
1C6
330
2
100
AcDbEntity
  8
0
  6
MSD4000
 62
     7
 48
0.9999999999999998
370
     0
100
AcDbPolyline
 90
        4
 70
     0
 43
0.0
 10
1503832.249999997
 20
4346455.799999997
 10
1503799.749999997
 20
4346484.709999998
 10
1503799.109999997
 20
4346487.659999996
 10
1503813.599999998
 20
4346505.479999996
  0
LWPOLYLINE
  5
1C7
330
2
100
AcDbEntity
  8
0
  6
MSD4000
 62
     7
 48
0.9999999999999998
370
     0
100
AcDbPolyline
 90
        2
 70
     0
 43
0.0
 10
1503816.349999997
 20
4346508.859999998
 10
1503848.273999997
 20
4346548.105999999
  0
LWPOLYLINE
  5
1C8
330
2
100
AcDbEntity
  8
0
  6
MSD4000
 62
     7
 48
0.9999999999999998
370
     0
100
AcDbPolyline
 90
        3
 70
     0
 43
0.0
 10
1503767.729999998
 20
4346334.359999998
 10
1503748.799999998
 20
4346346.949999997
 10
1503724.589999999
 20
4346364.139999997
  0
LWPOLYLINE
  5
1C9
330
2
100
AcDbEntity
  8
0
  6
MSD4000
 62
     7
 48
0.9999999999999998
370
     0
100
AcDbPolyline
 90
        2
 70
     0
 43
0.0
 10
1503721.569999998
 20
4346366.319999998
 10
1503710.749999998
 20
4346374.359999997
  0
LWPOLYLINE
  5
1CA
330
2
100
AcDbEntity
  8
0
  6
MSD4000
 62
     7
 48
0.9999999999999998
370
     0
100
AcDbPolyline
 90
        2
 70
     0
 43
0.0
 10
1503786.519999997
 20
4346476.809999996
 10
1503797.799999998
 20
4346466.939999998
  0
LWPOLYLINE
  5
1CB
330
2
100
AcDbEntity
  8
0
  6
MSD4000
 62
     7
 48
0.9999999999999998
370
     0
100
AcDbPolyline
 90
        2
 70
     0
 43
0.0
 10
1503800.589999997
 20
4346464.389999996
 10
1503844.099999998
 20
4346425.129999997
  0
LWPOLYLINE
  5
1CC
330
2
100
AcDbEntity
  8
0
  6
MSD4000
 62
     7
 48
0.9999999999999998
370
     0
100
AcDbPolyline
 90
        2
 70
     0
 43
0.0
 10
1503813.200999997
 20
4346453.010999996
 10
1503809.109999998
 20
4346448.319999998
  0
LWPOLYLINE
  5
1CD
330
2
100
AcDbEntity
  8
0
  6
MSD4000
 62
     7
 48
0.9999999999999998
370
     0
100
AcDbPolyline
 90
        2
 70
     0
 43
0.0
 10
1503808.109999998
 20
4346447.279999996
 10
1503806.869999998
 20
4346445.969999999
  0
LWPOLYLINE
  5
1CE
330
2
100
AcDbEntity
  8
0
  6
MSD4000
 62
     7
 48
0.9999999999999998
370
     0
100
AcDbPolyline
 90
        2
 70
     0
 43
0.0
 10
1503790.709999998
 20
4346414.089999998
 10
1503789.339999998
 20
4346412.499999998
  0
LWPOLYLINE
  5
1CF
330
2
100
AcDbEntity
  8
0
  6
MSD4000
 62
     7
 48
0.9999999999999998
370
     0
100
AcDbPolyline
 90
        3
 70
     0
 43
0.0
 10
1503788.299999997
 20
4346411.269999996
 10
1503786.899999998
 20
4346409.639999997
 10
1503788.339999998
 20
4346408.349999997
  0
LWPOLYLINE
  5
1D0
330
2
100
AcDbEntity
  8
0
  6
MSD4000
 62
     7
 48
0.9999999999999998
370
     0
100
AcDbPolyline
 90
        2
 70
     0
 43
0.0
 10
1503778.264999998
 20
4346397.173999998
 10
1503780.019999998
 20
4346399.139999997
  0
LWPOLYLINE
  5
1D1
330
2
100
AcDbEntity
  8
0
  6
MSD4000
 62
     7
 48
0.9999999999999998
370
     0
100
AcDbPolyline
 90
        2
 70
     0
 43
0.0
 10
1503780.959999998
 20
4346400.199999997
 10
1503782.859999998
 20
4346402.319999998
  0
LWPOLYLINE
  5
1D2
330
2
100
AcDbEntity
  8
0
  6
MSD4000
 62
     7
 48
0.9999999999999998
370
     0
100
AcDbPolyline
 90
        2
 70
     0
 43
0.0
 10
1503774.339999996
 20
4346536.389999997
 10
1503770.719999996
 20
4346531.539999997
  0
LWPOLYLINE
  5
1D3
330
2
100
AcDbEntity
  8
0
  6
MSD4000
 62
     7
 48
0.9999999999999998
370
     0
100
AcDbPolyline
 90
        3
 70
     0
 43
0.0
 10
1503999.999999998
 20
4346261.828999999
 10
1503996.809999998
 20
4346256.509999998
 10
1503991.959999998
 20
4346259.269999997
  0
LWPOLYLINE
  5
1D4
330
2
100
AcDbEntity
  8
0
  6
MSD4000
 62
     7
 48
0.9999999999999998
370
     0
100
AcDbPolyline
 90
        4
 70
     0
 43
0.0
 10
1503999.999999997
 20
4346473.555999998
 10
1503980.969999998
 20
4346460.379999998
 10
1503973.119999997
 20
4346465.879999998
 10
1503961.559999997
 20
4346457.789999999
  0
LWPOLYLINE
  5
1D5
330
2
100
AcDbEntity
  8
0
  6
MSD4000
 62
     7
 48
0.9999999999999998
370
     0
100
AcDbPolyline
 90
        5
 70
     0
 43
0.0
 10
1503999.999999998
 20
4346422.947999997
 10
1503978.359999998
 20
4346407.929999997
 10
1503946.909999998
 20
4346352.319999998
 10
1503923.359999998
 20
4346373.699999997
 10
1503928.927999998
 20
4346383.049999999
  0
LWPOLYLINE
  5
1D6
330
2
100
AcDbEntity
  8
0
  6
MSD4000
 62
     7
 48
0.9999999999999998
370
     0
100
AcDbPolyline
 90
        2
 70
     0
 43
0.0
 10
1503958.739999997
 20
4346514.469999998
 10
1503999.999999997
 20
4346488.575999997
  0
LWPOLYLINE
  5
1D7
330
2
100
AcDbEntity
  8
0
  6
MSD4000
 62
     7
 48
0.9999999999999998
370
     0
100
AcDbPolyline
 90
        4
 70
     0
 43
0.0
 10
1503970.419999998
 20
4346257.849999997
 10
1503973.529999998
 20
4346256.059999997
 10
1503972.869999999
 20
4346254.969999998
 10
1503971.425999998
 20
4346252.534
  0
LWPOLYLINE
  5
1D8
330
2
100
AcDbEntity
  8
0
  6
MSD4000
 62
     7
 48
0.9999999999999998
370
     0
100
AcDbPolyline
 90
        2
 70
     0
 43
0.0
 10
1503960.702999999
 20
4346263.443999998
 10
1503962.979999998
 20
4346262.129999998
  0
LWPOLYLINE
  5
1D9
330
2
100
AcDbEntity
  8
0
  6
MSD4000
 62
     7
 48
0.9999999999999998
370
     0
100
AcDbPolyline
 90
        2
 70
     0
 43
0.0
 10
1503953.899999999
 20
4346280.939999999
 10
1503952.259999998
 20
4346281.874999997
  0
LWPOLYLINE
  5
1DA
330
2
100
AcDbEntity
  8
0
  6
MSD4000
 62
     7
 48
0.9999999999999998
370
     0
100
AcDbPolyline
 90
        2
 70
     0
 43
0.0
 10
1503949.883999999
 20
4346283.228999999
 10
1503947.899999998
 20
4346284.359999998
  0
LWPOLYLINE
  5
1DB
330
2
100
AcDbEntity
  8
0
  6
MSD4000
 62
     7
 48
0.9999999999999998
370
     0
100
AcDbPolyline
 90
        2
 70
     0
 43
0.0
 10
1503944.729999998
 20
4346286.169999998
 10
1503943.944999998
 20
4346286.607999997
  0
LWPOLYLINE
  5
1DC
330
2
100
AcDbEntity
  8
0
  6
MSD4000
 62
     7
 48
0.9999999999999998
370
     0
100
AcDbPolyline
 90
        2
 70
     0
 43
0.0
 10
1503942.308999998
 20
4346287.538999999
 10
1503941.779999999
 20
4346287.839999998
  0
LWPOLYLINE
  5
1DD
330
2
100
AcDbEntity
  8
0
  6
MSD4000
 62
     7
 48
0.9999999999999998
370
     0
100
AcDbPolyline
 90
        2
 70
     0
 43
0.0
 10
1503956.499999998
 20
4346304.679999997
 10
1503960.494999998
 20
4346302.384999997
  0
LWPOLYLINE
  5
1DE
330
2
100
AcDbEntity
  8
0
  6
MSD4000
 62
     7
 48
0.9999999999999998
370
     0
100
AcDbPolyline
 90
        2
 70
     0
 43
0.0
 10
1503962.582999998
 20
4346301.185999998
 10
1503965.451999998
 20
4346299.530999997
  0
LWPOLYLINE
  5
1DF
330
2
100
AcDbEntity
  8
0
  6
MSD4000
 62
     7
 48
0.9999999999999998
370
     0
100
AcDbPolyline
 90
        2
 70
     0
 43
0.0
 10
1503951.919999997
 20
4346518.749999998
 10
1503952.654999997
 20
4346519.546999998
  0
LWPOLYLINE
  5
1E0
330
2
100
AcDbEntity
  8
0
  6
MSD4000
 62
     7
 48
0.9999999999999998
370
     0
100
AcDbPolyline
 90
        3
 70
     0
 43
0.0
 10
1503929.389999997
 20
4346321.909999997
 10
1503923.869999999
 20
4346320.189999998
 10
1503903.946999998
 20
4346317.437999998
  0
LWPOLYLINE
  5
1E1
330
2
100
AcDbEntity
  8
0
  6
MSD4000
 62
     7
 48
0.9999999999999998
370
     0
100
AcDbPolyline
 90
        2
 70
     0
 43
0.0
 10
1503900.671999998
 20
4346316.984999998
 10
1503893.899999998
 20
4346316.049999997
  0
LWPOLYLINE
  5
1E2
330
2
100
AcDbEntity
  8
0
  6
MSD4000
 62
     7
 48
0.9999999999999998
370
     0
100
AcDbPolyline
 90
        2
 70
     0
 43
0.0
 10
1503748.799999998
 20
4346346.949999997
 10
1503763.775033068
 20
4346363.238415555
  0
LWPOLYLINE
  5
1E3
330
2
100
AcDbEntity
  8
0
  6
MST4000
 62
     7
 48
0.9999999999999998
370
     0
100
AcDbPolyline
 90
        2
 70
     0
 43
0.0
 10
1503935.239999998
 20
4346289.729999998
 10
1503926.269999998
 20
4346295.029999997
  0
LWPOLYLINE
  5
1E5
330
2
100
AcDbEntity
  8
0
  6
MST4000
 62
     7
 48
0.9999999999999998
370
     0
100
AcDbPolyline
 90
        4
 70
     0
 43
0.0
 10
1503967.259999998
 20
4346168.609999999
 10
1503945.569999998
 20
4346207.869999997
 10
1503819.329999997
 20
4346273.879999995
 10
1503770.509999999
 20
4346284.179999997
  0
LWPOLYLINE
  5
1E6
330
2
100
AcDbEntity
  8
0
  6
MST4000
 62
     7
 48
0.9999999999999998
370
     0
100
AcDbPolyline
 90
        2
 70
     0
 43
0.0
 10
1503858.689999998
 20
4346431.999999998
 10
1503863.399999998
 20
4346437.839999998
  0
LWPOLYLINE
  5
1E7
330
2
100
AcDbEntity
  8
0
  6
MST4000
 62
     7
 48
0.9999999999999998
370
     0
100
AcDbPolyline
 90
        3
 70
     0
 43
0.0
 10
1503909.279999996
 20
4346536.399999997
 10
1503931.759999997
 20
4346520.039999997
 10
1503912.089999998
 20
4346496.45
  0
LWPOLYLINE
  5
1E8
330
2
100
AcDbEntity
  8
0
  6
MST4000
 62
     7
 48
0.9999999999999998
370
     0
100
AcDbPolyline
 90
        2
 70
     0
 43
0.0
 10
1503865.159999998
 20
4346440.009999995
 10
1503880.919999998
 20
4346459.549999997
  0
LWPOLYLINE
  5
1E9
330
2
100
AcDbEntity
  8
0
  6
MST4000
 62
     7
 48
0.9999999999999998
370
     0
100
AcDbPolyline
 90
        2
 70
     0
 43
0.0
 10
1503832.249999997
 20
4346455.799999997
 10
1503858.399999997
 20
4346432.249999998
  0
LWPOLYLINE
  5
1EA
330
2
100
AcDbEntity
  8
0
  6
MST4000
 62
     7
 48
0.9999999999999998
370
     0
100
AcDbPolyline
 90
       22
 70
     0
 43
0.0
 10
1503816.609999998
 20
4346390.739999997
 10
1503822.469999998
 20
4346385.649999998
 10
1503824.599999998
 20
4346384.299999997
 10
1503827.079999998
 20
4346383.259999996
 10
1503830.209999998
 20
4346382.589999996
 10
1503832.559999998
 20
4346382.479999999
 10
1503835.759999998
 20
4346382.839999996
 10
1503838.219999998
 20
4346383.519999996
 10
1503840.339999998
 20
4346384.479999996
 10
1503842.829999998
 20
4346385.909999998
 10
1503844.839999998
 20
4346387.709999997
 10
1503846.709999997
 20
4346390.019999995
 10
1503847.829999997
 20
4346392.229999996
 10
1503848.949999998
 20
4346394.939999997
 10
1503849.629999998
 20
4346397.949999997
 10
1503849.579999998
 20
4346401.229999997
 10
1503849.189999998
 20
4346404.039999997
 10
1503848.149999998
 20
4346406.789999997
 10
1503846.949999998
 20
4346409.319999998
 10
1503844.639999997
 20
4346412.059999997
 10
1503839.159999998
 20
4346417.029999998
 10
1503822.649999998
 20
4346431.929999996
  0
INSERT
  5
1EB
330
2
100
AcDbEntity
  8
0
  6
Continuous
 62
     5
370
     0
100
AcDbBlockReference
  2
pozzo_1
 10
1503919.237742567
 20
4346475.395509304
 30
0.0
 41
0.0100000000093132
 42
0.0100000000093132
 43
0.0100000000093132
  0
LWPOLYLINE
  5
1F4
330
2
100
AcDbEntity
  8
0
  6
STACCIO4000
 62
     3
 48
0.9999999999999998
370
     0
100
AcDbPolyline
 90
        2
 70
   128
 43
0.0
 10
1503964.355999997
 20
4346530.058999999
 10
1503967.809999997
 20
4346534.959999998
  0
LWPOLYLINE
  5
1F6
330
2
100
AcDbEntity
  8
0
  6
STACCIO4000
 62
     3
 48
0.9999999999999998
370
     0
100
AcDbPolyline
 90
        4
 70
   128
 43
0.0
 10
1503767.949999998
 20
4346285.339999996
 10
1503762.719999998
 20
4346285.799999996
 10
1503720.739999998
 20
4346294.699999997
 10
1503704.669999998
 20
4346298.139999997
  0
LWPOLYLINE
  5
1F7
330
2
100
AcDbEntity
  8
0
  6
STACCIO4000
 62
     3
 48
0.9999999999999998
370
     0
100
AcDbPolyline
 90
        6
 70
   128
 43
0.0
 10
1503861.659999998
 20
4346409.229999999
 10
1503853.819999998
 20
4346401.179999998
 10
1503853.619999999
 20
4346394.089999998
 10
1503866.659999997
 20
4346382.289999997
 10
1503873.839999998
 20
4346383.399999997
 10
1503881.369999997
 20
4346391.599999997
  0
LWPOLYLINE
  5
1F8
330
2
100
AcDbEntity
  8
0
  6
STACCIO4000
 62
     3
 48
0.9999999999999998
370
     0
100
AcDbPolyline
 90
        4
 70
   129
 43
0.0
 10
1503814.849999997
 20
4346373.129999996
 10
1503846.339999997
 20
4346344.449999997
 10
1503831.099999998
 20
4346327.719999997
 10
1503799.609999998
 20
4346356.389999996
  0
LWPOLYLINE
  5
1F9
330
2
100
AcDbEntity
  8
0
  6
STACCIO4000
 62
     3
 48
0.9999999999999998
370
     0
100
AcDbPolyline
 90
        4
 70
   128
 43
0.0
 10
1503824.159999998
 20
4346321.966999997
 10
1503790.119999999
 20
4346352.999999998
 10
1503815.769999997
 20
4346381.699999996
 10
1503835.791999998
 20
4346362.437999998
  0
LWPOLYLINE
  5
1FA
330
2
100
AcDbEntity
  8
0
  6
STACCIO4000
 62
     3
 48
0.9999999999999998
370
     0
100
AcDbPolyline
 90
        2
 70
   128
 43
0.0
 10
1503835.112999998
 20
4346359.032999997
 10
1503833.062999998
 20
4346356.542999996
  0
LWPOLYLINE
  5
1FB
330
2
100
AcDbEntity
  8
0
  6
STACCIO4000
 62
     3
 48
0.9999999999999998
370
     0
100
AcDbPolyline
 90
        4
 70
   128
 43
0.0
 10
1503777.659999997
 20
4346527.909999998
 10
1503771.339999998
 20
4346519.139999997
 10
1503785.469999997
 20
4346505.149999997
 10
1503794.269999997
 20
4346515.889999997
  0
LWPOLYLINE
  5
1FC
330
2
100
AcDbEntity
  8
0
  6
STACCIO4000
 62
     3
 48
0.9999999999999998
370
     0
100
AcDbPolyline
 90
        2
 70
   128
 43
0.0
 10
1503672.459999998
 20
4346251.639999995
 10
1503697.229999998
 20
4346235.039999997
  0
LWPOLYLINE
  5
1FD
330
2
100
AcDbEntity
  8
0
  6
STACCIO4000
 62
     3
 48
0.9999999999999998
370
     0
100
AcDbPolyline
 90
        3
 70
   128
 43
0.0
 10
1503704.669999998
 20
4346298.139999997
 10
1503685.119999998
 20
4346302.329999996
 10
1503628.869999999
 20
4346323.949999997
  0
LWPOLYLINE
  5
1FE
330
2
100
AcDbEntity
  8
0
  6
STACCIO4000
 62
     3
 48
0.9999999999999998
370
     0
100
AcDbPolyline
 90
       20
 70
   128
 43
0.0
 10
1503822.649999998
 20
4346431.929999996
 10
1503805.929999997
 20
4346446.799999996
 10
1503803.359999998
 20
4346448.409999998
 10
1503800.069999997
 20
4346449.839999998
 10
1503796.819999997
 20
4346450.389999995
 10
1503794.309999997
 20
4346450.229999998
 10
1503791.689999997
 20
4346449.899999998
 10
1503789.079999997
 20
4346449.179999997
 10
1503785.969999997
 20
4346447.699999997
 10
1503783.709999998
 20
4346445.969999996
 10
1503781.539999997
 20
4346443.689999997
 10
1503779.909999998
 20
4346441.019999996
 10
1503778.869999998
 20
4346438.379999997
 10
1503778.289999997
 20
4346435.039999997
 10
1503778.119999997
 20
4346431.949999997
 10
1503778.409999997
 20
4346429.209999997
 10
1503779.609999998
 20
4346426.069999997
 10
1503780.809999997
 20
4346423.899999996
 10
1503781.899999998
 20
4346422.249999996
 10
1503800.969999998
 20
4346404.609999996
  0
LWPOLYLINE
  5
1FF
330
2
100
AcDbEntity
  8
0
  6
STACCIO4000
 62
     3
 48
0.9999999999999998
370
     0
100
AcDbPolyline
 90
        2
 70
   128
 43
0.0
 10
1503802.039999998
 20
4346403.819999999
 10
1503816.609999998
 20
4346390.739999997
  0
LWPOLYLINE
  5
200
330
2
100
AcDbEntity
  8
0
  6
STACCIO4000
 62
     3
 48
0.9999999999999998
370
     0
100
AcDbPolyline
 90
        3
 70
   128
 43
0.0
 10
1503710.749999998
 20
4346374.359999997
 10
1503710.699999998
 20
4346378.559999997
 10
1503786.519999997
 20
4346476.809999996
  0
LWPOLYLINE
  5
201
330
2
100
AcDbEntity
  8
0
  6
STACCIO4000
 62
     3
 48
0.9999999999999998
370
     0
100
AcDbPolyline
 90
        4
 70
   128
 43
0.0
 10
1503590.119999998
 20
4346301.059999996
 10
1503630.599999998
 20
4346279.879999997
 10
1503653.829999998
 20
4346264.039999996
 10
1503672.459999998
 20
4346251.639999995
  0
LWPOLYLINE
  5
202
330
2
100
AcDbEntity
  8
0
  6
STACCIO4000
 62
     3
 48
0.9999999999999998
370
     0
100
AcDbPolyline
 90
       11
 70
   128
 43
0.0
 10
1503696.659999999
 20
4346230.239999996
 10
1503675.409999998
 20
4346244.049999994
 10
1503654.709999998
 20
4346257.799999995
 10
1503630.769999998
 20
4346273.339999996
 10
1503609.829999999
 20
4346285.409999996
 10
1503596.289999998
 20
4346292.819999996
 10
1503592.789999998
 20
4346294.499999996
 10
1503589.839999998
 20
4346295.339999996
 10
1503588.379999998
 20
4346295.299999996
 10
1503581.729999998
 20
4346289.529999997
 10
1503573.069999998
 20
4346279.559999997
  0
LWPOLYLINE
  5
203
330
2
100
AcDbEntity
  8
0
  6
STACCIO4000
 62
     3
 48
0.9999999999999998
370
     0
100
AcDbPolyline
 90
        2
 70
   128
 43
0.0
 10
1503601.629999997
 20
4346460.839999996
 10
1503640.149999998
 20
4346425.909999996
  0
LWPOLYLINE
  5
204
330
2
100
AcDbEntity
  8
0
  6
STACCIO4000
 62
     3
 48
0.9999999999999998
370
     0
100
AcDbPolyline
 90
        8
 70
   128
 43
0.0
 10
1503766.059999997
 20
4346525.569999998
 10
1503756.859999997
 20
4346514.659999996
 10
1503735.109999997
 20
4346536.919999997
 10
1503719.629999997
 20
4346552.299999997
 10
1503678.699999996
 20
4346594.699999996
 10
1503667.089999997
 20
4346606.629999995
 10
1503667.709999996
 20
4346614.869999997
 10
1503688.789999997
 20
4346647.409999996
  0
LWPOLYLINE
  5
205
330
2
100
AcDbEntity
  8
0
  6
SIEPE4000
 62
     3
 48
0.9999999999999998
370
     0
100
AcDbPolyline
 90
        2
 70
   128
 43
0.0
 10
1503894.809999998
 20
4346327.399999998
 10
1503893.299999998
 20
4346344.869999998
  0
LWPOLYLINE
  5
207
330
2
100
AcDbEntity
  8
0
  6
SIEPE4000
 62
     3
 48
0.9999999999999998
370
     0
100
AcDbPolyline
 90
        4
 70
   128
 43
0.0
 10
1503761.419999998
 20
4346286.319999997
 10
1503771.639999997
 20
4346305.769999996
 10
1503747.579999998
 20
4346317.799999998
 10
1503716.539999998
 20
4346348.229999996
  0
LWPOLYLINE
  5
208
330
2
100
AcDbEntity
  8
0
  6
SIEPE4000
 62
     3
 48
0.9999999999999998
370
     0
100
AcDbPolyline
 90
        8
 70
   128
 43
0.0
 10
1503713.549999998
 20
4346351.609999997
 10
1503707.289999998
 20
4346359.909999996
 10
1503701.469999997
 20
4346365.699999998
 10
1503696.519999997
 20
4346368.349999996
 10
1503691.909999998
 20
4346368.849999996
 10
1503686.579999998
 20
4346366.049999994
 10
1503654.419999998
 20
4346339.349999996
 10
1503634.059999998
 20
4346322.429999997
  0
LWPOLYLINE
  5
209
330
2
100
AcDbEntity
  8
0
  6
SIEPE4000
 62
     3
 48
0.9999999999999998
370
     0
100
AcDbPolyline
 90
        4
 70
   128
 43
0.0
 10
1503771.299999997
 20
4346493.069999998
 10
1503747.659999997
 20
4346468.749999996
 10
1503715.579999998
 20
4346439.369999997
 10
1503685.699999998
 20
4346413.559999996
  0
LWPOLYLINE
  5
20A
330
2
100
AcDbEntity
  8
0
  6
SIEPE4000
 62
     3
 48
0.9999999999999998
370
     0
100
AcDbPolyline
 90
        6
 70
   128
 43
0.0
 10
1503737.219999996
 20
4346529.859999997
 10
1503730.239999997
 20
4346531.899999996
 10
1503718.619999997
 20
4346547.089999997
 10
1503704.519999996
 20
4346563.389999997
 10
1503699.399999997
 20
4346570.679999997
 10
1503674.159999997
 20
4346595.179999996
  0
LWPOLYLINE
  5
20B
330
2
100
AcDbEntity
  8
0
  6
MSD4000
 62
     7
 48
0.9999999999999998
370
     0
100
AcDbPolyline
 90
        3
 70
     0
 43
0.0
 10
1503932.607999998
 20
4346256.044999998
 10
1503973.049999998
 20
4346232.769999996
 10
1503978.117999998
 20
4346230.191999998
  0
LWPOLYLINE
  5
20C
330
2
100
AcDbEntity
  8
0
  6
DGN Style 5
 62
     7
370
     0
100
AcDbPolyline
 90
        3
 70
   128
 43
0.0
 10
1503957.029999997
 20
4346472.429999998
 10
1503957.269999997
 20
4346472.999999996
 10
1503973.513068315
 20
4346488.749811299
  0
LWPOLYLINE
  5
20D
330
2
100
AcDbEntity
  8
0
  6
DGN Style 5
 62
     7
370
     0
100
AcDbPolyline
 90
        4
 70
   128
 43
0.0
 10
1503945.279999998
 20
4346471.839999998
 10
1503945.659999997
 20
4346472.359999998
 10
1503946.359999998
 20
4346472.699999997
 10
1503956.623581495
 20
4346472.373211436
  0
LWPOLYLINE
  5
20E
330
2
100
AcDbEntity
  8
0
  6
DGN Style 5
 62
     7
370
     0
100
AcDbPolyline
 90
        5
 70
   128
 43
0.0
 10
1503920.109999998
 20
4346429.319999998
 10
1503919.899999997
 20
4346429.959999997
 10
1503919.979999997
 20
4346430.839999998
 10
1503920.499999997
 20
4346431.429999998
 10
1503934.522130306
 20
4346448.080565492
  0
LWPOLYLINE
  5
20F
330
2
100
AcDbEntity
  8
0
  6
DGN Style 5
 62
     7
370
     0
100
AcDbPolyline
 90
       16
 70
   128
 43
0.0
 10
1503894.039999998
 20
4346400.269999995
 10
1503897.329999998
 20
4346403.889999997
 10
1503897.829999998
 20
4346404.259999998
 10
1503898.369999998
 20
4346404.149999997
 10
1503904.799999997
 20
4346402.699999997
 10
1503905.899999997
 20
4346403.299999998
 10
1503907.039999997
 20
4346403.999999997
 10
1503908.099999997
 20
4346404.869999997
 10
1503909.009999998
 20
4346406.179999998
 10
1503909.549999998
 20
4346407.199999998
 10
1503910.079999998
 20
4346409.089999998
 10
1503909.399999998
 20
4346421.979999998
 10
1503909.639999997
 20
4346423.139999997
 10
1503910.119999997
 20
4346424.269999998
 10
1503910.729999998
 20
4346424.999999996
 10
1503919.167421284
 20
4346429.847630654
  0
LWPOLYLINE
  5
210
330
2
100
AcDbEntity
  8
0
  6
DGN Style 5
 62
     7
370
     0
100
AcDbPolyline
 90
        9
 70
   128
 43
0.0
 10
1503968.826611462
 20
4346495.658815286
 10
1503966.659999998
 20
4346492.769999998
 10
1503954.669999997
 20
4346489.339999997
 10
1503954.039999997
 20
4346489.229999998
 10
1503953.329999997
 20
4346489.399999997
 10
1503952.589999997
 20
4346489.909999998
 10
1503943.129999997
 20
4346503.839999997
 10
1503942.889999997
 20
4346504.169999998
 10
1503939.197797562
 20
4346505.473130271
  0
LWPOLYLINE
  5
211
330
2
100
AcDbEntity
  8
0
  6
Continuous
 62
    33
370
     0
100
AcDbPolyline
 90
       39
 70
   128
 43
0.0
 10
1503685.713603534
 20
4346371.639948412
 10
1503685.439999998
 20
4346371.209999997
 10
1503685.089999998
 20
4346370.789999996
 10
1503684.699999998
 20
4346370.459999997
 10
1503684.279999998
 20
4346370.199999998
 10
1503683.779999998
 20
4346369.929999996
 10
1503683.269999998
 20
4346369.719999997
 10
1503679.909999998
 20
4346368.119999997
 10
1503670.939999998
 20
4346363.639999997
 10
1503670.459999998
 20
4346363.309999995
 10
1503670.039999998
 20
4346362.979999996
 10
1503669.309999997
 20
4346362.459999995
 10
1503668.819999998
 20
4346362.189999998
 10
1503667.929999998
 20
4346361.629999998
 10
1503659.329999998
 20
4346356.329999998
 10
1503650.719999997
 20
4346351.169999996
 10
1503650.249999998
 20
4346350.949999997
 10
1503649.779999997
 20
4346350.699999996
 10
1503641.019999998
 20
4346345.729999998
 10
1503640.529999998
 20
4346345.509999996
 10
1503639.529999998
 20
4346344.979999996
 10
1503638.969999998
 20
4346344.639999997
 10
1503632.159999998
 20
4346340.019999995
 10
1503631.759999998
 20
4346339.649999997
 10
1503631.359999998
 20
4346339.329999998
 10
1503630.799999998
 20
4346338.949999998
 10
1503629.919999998
 20
4346338.419999995
 10
1503629.429999997
 20
4346338.199999998
 10
1503628.359999998
 20
4346337.799999997
 10
1503624.639999998
 20
4346336.159999999
 10
1503624.109999998
 20
4346335.829999996
 10
1503616.109999998
 20
4346331.449999998
 10
1503615.569999998
 20
4346331.389999996
 10
1503615.039999998
 20
4346331.459999995
 10
1503614.509999998
 20
4346331.389999995
 10
1503614.029999998
 20
4346331.169999996
 10
1503613.359999999
 20
4346330.909999996
 10
1503612.859999998
 20
4346330.789999997
 10
1503610.779999998
 20
4346331.269999995
  0
LWPOLYLINE
  5
212
330
2
100
AcDbEntity
  8
0
  6
Continuous
 62
    33
370
     0
100
AcDbPolyline
 90
       59
 70
   128
 43
0.0
 10
1503584.242680702
 20
4346348.291425927
 10
1503585.619999997
 20
4346349.399999994
 10
1503589.889999997
 20
4346352.379999995
 10
1503590.409999998
 20
4346352.519999997
 10
1503590.919999997
 20
4346352.629999996
 10
1503591.479999998
 20
4346352.719999995
 10
1503592.679999998
 20
4346352.839999996
 10
1503594.729999997
 20
4346353.179999996
 10
1503595.249999998
 20
4346353.329999997
 10
1503600.159999997
 20
4346355.089999995
 10
1503600.729999997
 20
4346355.339999996
 10
1503607.629999998
 20
4346357.989999996
 10
1503608.179999997
 20
4346358.119999996
 10
1503609.619999999
 20
4346358.549999997
 10
1503610.219999998
 20
4346358.769999995
 10
1503612.749999997
 20
4346359.549999996
 10
1503616.829999998
 20
4346361.069999996
 10
1503617.289999998
 20
4346361.339999996
 10
1503617.869999998
 20
4346361.639999996
 10
1503618.429999997
 20
4346361.889999996
 10
1503618.969999998
 20
4346362.069999996
 10
1503619.459999998
 20
4346362.209999997
 10
1503628.729999997
 20
4346365.359999997
 10
1503632.049999997
 20
4346366.279999997
 10
1503632.639999997
 20
4346366.379999997
 10
1503633.399999998
 20
4346366.459999997
 10
1503636.859999998
 20
4346367.049999996
 10
1503637.409999998
 20
4346367.179999996
 10
1503638.539999998
 20
4346367.499999996
 10
1503644.209999998
 20
4346369.499999997
 10
1503644.689999998
 20
4346369.709999996
 10
1503645.249999998
 20
4346369.889999997
 10
1503648.909999997
 20
4346371.319999994
 10
1503649.429999997
 20
4346371.579999998
 10
1503650.549999998
 20
4346372.069999995
 10
1503653.489999998
 20
4346373.539999995
 10
1503653.969999998
 20
4346373.819999999
 10
1503654.519999997
 20
4346374.089999996
 10
1503655.029999997
 20
4346374.309999995
 10
1503655.539999998
 20
4346374.499999996
 10
1503656.049999998
 20
4346374.629999996
 10
1503656.659999998
 20
4346374.749999998
 10
1503657.249999997
 20
4346374.829999996
 10
1503658.849999998
 20
4346375.139999997
 10
1503659.379999998
 20
4346375.289999996
 10
1503669.009999998
 20
4346378.289999999
 10
1503670.319999997
 20
4346378.609999997
 10
1503670.839999998
 20
4346378.799999998
 10
1503671.379999998
 20
4346378.949999995
 10
1503671.889999998
 20
4346379.049999996
 10
1503672.399999998
 20
4346379.179999997
 10
1503682.109999997
 20
4346381.639999997
 10
1503682.599999997
 20
4346381.409999996
 10
1503683.039999998
 20
4346381.159999997
 10
1503683.449999997
 20
4346380.859999997
 10
1503683.689999998
 20
4346380.409999996
 10
1503683.859999998
 20
4346379.929999995
 10
1503684.079999997
 20
4346379.159999997
 10
1503684.505123193
 20
4346377.998687852
  0
LWPOLYLINE
  5
213
330
2
100
AcDbEntity
  8
0
  6
Continuous
 62
    33
370
     0
100
AcDbPolyline
 90
       47
 70
   128
 43
0.0
 10
1503734.730195267
 20
4346432.297134951
 10
1503736.139999998
 20
4346431.049999996
 10
1503736.499999997
 20
4346430.659999997
 10
1503736.819999998
 20
4346430.229999998
 10
1503737.129999997
 20
4346429.739999997
 10
1503737.869999997
 20
4346428.679999996
 10
1503738.309999997
 20
4346428.309999994
 10
1503738.839999998
 20
4346428.009999997
 10
1503739.359999998
 20
4346427.799999996
 10
1503739.869999997
 20
4346427.629999997
 10
1503741.159999998
 20
4346427.109999997
 10
1503741.609999998
 20
4346426.799999999
 10
1503742.009999998
 20
4346426.429999997
 10
1503742.849999998
 20
4346425.769999996
 10
1503743.329999998
 20
4346425.549999996
 10
1503750.779999997
 20
4346422.549999997
 10
1503751.109999997
 20
4346422.979999997
 10
1503751.359999997
 20
4346423.429999996
 10
1503752.529999997
 20
4346425.309999997
 10
1503752.899999998
 20
4346425.659999996
 10
1503753.349999997
 20
4346425.899999997
 10
1503753.879999998
 20
4346425.889999998
 10
1503754.349999998
 20
4346425.599999998
 10
1503754.759999997
 20
4346425.239999996
 10
1503755.189999998
 20
4346424.819999998
 10
1503755.649999998
 20
4346424.449999995
 10
1503756.089999997
 20
4346424.179999996
 10
1503756.559999998
 20
4346423.949999997
 10
1503757.059999998
 20
4346423.819999999
 10
1503757.609999998
 20
4346423.819999996
 10
1503758.139999998
 20
4346423.909999996
 10
1503758.629999999
 20
4346424.069999998
 10
1503759.569999998
 20
4346424.329999996
 10
1503760.089999998
 20
4346424.359999997
 10
1503760.649999997
 20
4346424.299999997
 10
1503761.169999998
 20
4346424.319999997
 10
1503761.649999998
 20
4346424.479999996
 10
1503761.909999998
 20
4346424.949999997
 10
1503762.079999997
 20
4346425.449999997
 10
1503762.379999997
 20
4346425.909999996
 10
1503762.789999997
 20
4346426.229999996
 10
1503763.279999998
 20
4346426.429999998
 10
1503763.809999997
 20
4346426.499999997
 10
1503764.369999998
 20
4346426.519999996
 10
1503765.909999998
 20
4346426.639999997
 10
1503766.419999998
 20
4346426.749999998
 10
1503766.919999998
 20
4346426.899999996
  0
LWPOLYLINE
  5
214
330
2
100
AcDbEntity
  8
0
  6
Continuous
 62
    33
370
     0
100
AcDbPolyline
 90
      325
 70
   128
 43
0.0
 10
1503577.831499718
 20
4346521.700105667
 10
1503578.329999997
 20
4346519.879999997
 10
1503578.709999997
 20
4346519.439999997
 10
1503579.249999998
 20
4346519.269999996
 10
1503579.789999997
 20
4346519.339999995
 10
1503580.279999997
 20
4346519.519999997
 10
1503580.739999996
 20
4346519.809999995
 10
1503581.179999997
 20
4346520.129999996
 10
1503581.679999998
 20
4346519.959999997
 10
1503581.919999997
 20
4346519.499999996
 10
1503581.999999997
 20
4346518.959999996
 10
1503581.979999997
 20
4346518.409999996
 10
1503581.779999997
 20
4346516.199999995
 10
1503581.599999997
 20
4346514.909999997
 10
1503581.399999998
 20
4346514.399999996
 10
1503581.179999997
 20
4346513.929999996
 10
1503581.029999997
 20
4346513.439999998
 10
1503581.039999997
 20
4346512.939999995
 10
1503581.269999997
 20
4346512.449999996
 10
1503581.769999997
 20
4346512.069999997
 10
1503582.249999997
 20
4346511.879999995
 10
1503582.749999997
 20
4346511.749999996
 10
1503583.279999998
 20
4346511.679999996
 10
1503583.859999997
 20
4346511.659999999
 10
1503584.379999997
 20
4346511.709999996
 10
1503584.879999997
 20
4346511.829999998
 10
1503585.369999997
 20
4346512.009999996
 10
1503585.809999997
 20
4346512.269999996
 10
1503586.239999997
 20
4346512.569999997
 10
1503586.709999998
 20
4346512.799999996
 10
1503587.209999997
 20
4346512.609999996
 10
1503587.559999998
 20
4346512.199999997
 10
1503587.849999997
 20
4346511.729999996
 10
1503588.069999997
 20
4346511.229999997
 10
1503589.029999997
 20
4346509.299999995
 10
1503589.729999998
 20
4346508.109999997
 10
1503590.129999997
 20
4346507.799999995
 10
1503590.659999997
 20
4346507.549999995
 10
1503591.209999997
 20
4346507.439999995
 10
1503591.719999997
 20
4346507.409999996
 10
1503592.239999998
 20
4346507.479999996
 10
1503592.769999997
 20
4346507.599999996
 10
1503593.269999998
 20
4346507.799999996
 10
1503593.749999998
 20
4346508.019999997
 10
1503594.219999996
 20
4346508.269999995
 10
1503596.569999997
 20
4346509.389999996
 10
1503597.089999997
 20
4346509.329999996
 10
1503597.539999998
 20
4346509.109999996
 10
1503598.009999997
 20
4346508.819999996
 10
1503598.399999998
 20
4346508.499999996
 10
1503598.719999997
 20
4346508.109999997
 10
1503599.099999997
 20
4346507.589999996
 10
1503599.359999997
 20
4346507.139999996
 10
1503599.569999998
 20
4346506.669999996
 10
1503599.719999997
 20
4346506.179999996
 10
1503600.179999997
 20
4346504.899999997
 10
1503600.639999997
 20
4346504.629999997
 10
1503601.139999997
 20
4346504.729999996
 10
1503601.499999997
 20
4346505.109999996
 10
1503601.809999997
 20
4346505.519999996
 10
1503602.209999997
 20
4346505.839999996
 10
1503602.679999997
 20
4346506.129999995
 10
1503604.169999996
 20
4346507.209999995
 10
1503604.519999997
 20
4346507.579999996
 10
1503605.539999997
 20
4346508.549999996
 10
1503606.049999997
 20
4346508.699999995
 10
1503606.439999996
 20
4346508.359999996
 10
1503606.469999997
 20
4346507.839999996
 10
1503606.369999997
 20
4346507.309999997
 10
1503606.259999997
 20
4346506.399999996
 10
1503606.429999996
 20
4346505.909999996
 10
1503606.949999997
 20
4346505.769999995
 10
1503607.469999997
 20
4346505.839999996
 10
1503607.969999997
 20
4346505.929999996
 10
1503608.529999997
 20
4346505.999999997
 10
1503609.049999997
 20
4346505.999999997
 10
1503609.579999997
 20
4346505.949999998
 10
1503610.119999997
 20
4346505.959999996
 10
1503612.569999997
 20
4346505.889999995
 10
1503613.009999997
 20
4346505.599999995
 10
1503613.419999996
 20
4346505.229999997
 10
1503613.779999997
 20
4346504.799999997
 10
1503614.049999996
 20
4346504.369999995
 10
1503615.199999997
 20
4346502.809999996
 10
1503615.599999997
 20
4346502.389999996
 10
1503616.199999997
 20
4346501.689999997
 10
1503617.169999997
 20
4346500.669999996
 10
1503617.649999997
 20
4346500.319999996
 10
1503617.860188805
 20
4346500.541635519
 10
1503619.559330546
 20
4346500.933745152
 10
1503621.323823893
 20
4346502.175425655
 10
1503623.022965633
 20
4346502.959644919
 10
1503623.669999997
 20
4346501.039999997
 10
1503625.898436271
 20
4346500.149525887
 10
1503626.769999997
 20
4346500.139999997
 10
1503627.149999998
 20
4346499.799999997
 10
1503627.459999998
 20
4346499.359999998
 10
1503627.619999998
 20
4346498.839999996
 10
1503627.759999997
 20
4346498.289999997
 10
1503627.899999998
 20
4346497.589999996
 10
1503628.599999997
 20
4346494.779999997
 10
1503629.009999997
 20
4346494.459999997
 10
1503629.539999997
 20
4346494.459999997
 10
1503629.999999997
 20
4346494.719999995
 10
1503630.399999997
 20
4346495.079999995
 10
1503630.779999997
 20
4346495.459999998
 10
1503631.199999998
 20
4346495.759999996
 10
1503631.780080758
 20
4346496.032374745
 10
1503632.449999997
 20
4346496.059999997
 10
1503632.368245206
 20
4346495.182803875
 10
1503631.845432363
 20
4346494.333233004
 10
1503630.60375186
 20
4346492.764794474
 10
1503627.689999997
 20
4346489.769999996
 10
1503627.279999997
 20
4346489.389999995
 10
1503625.859999997
 20
4346487.899999996
 10
1503625.699999997
 20
4346487.389999997
 10
1503625.819999998
 20
4346486.839999996
 10
1503626.279999997
 20
4346486.459999996
 10
1503626.829999998
 20
4346486.349999996
 10
1503627.429999997
 20
4346486.359999998
 10
1503627.929999997
 20
4346486.449999997
 10
1503629.139999997
 20
4346486.569999997
 10
1503629.669999998
 20
4346486.499999996
 10
1503630.099999997
 20
4346486.159999996
 10
1503630.339999998
 20
4346485.679999996
 10
1503630.549999997
 20
4346485.189999996
 10
1503630.879999998
 20
4346484.769999998
 10
1503631.269999997
 20
4346484.409999996
 10
1503631.709999997
 20
4346484.049999997
 10
1503633.129999998
 20
4346482.769999995
 10
1503633.489999998
 20
4346482.329999997
 10
1503634.289999997
 20
4346481.269999996
 10
1503634.429999998
 20
4346480.719999997
 10
1503634.639999997
 20
4346480.149999996
 10
1503634.899999997
 20
4346479.629999997
 10
1503635.189999998
 20
4346479.159999998
 10
1503635.479999997
 20
4346478.749999996
 10
1503636.169999997
 20
4346477.879999997
 10
1503637.459999998
 20
4346476.419999997
 10
1503637.879999998
 20
4346476.149999997
 10
1503638.359999998
 20
4346475.979999999
 10
1503638.929999997
 20
4346475.849999996
 10
1503639.479999997
 20
4346475.799999997
 10
1503640.019999997
 20
4346475.839999996
 10
1503640.499999997
 20
4346475.999999997
 10
1503640.979999997
 20
4346476.249999996
 10
1503641.399999998
 20
4346476.569999999
 10
1503641.789999997
 20
4346476.909999997
 10
1503642.299999998
 20
4346477.129999995
 10
1503642.839999997
 20
4346477.119999997
 10
1503643.339999998
 20
4346476.909999997
 10
1503643.739999998
 20
4346476.569999997
 10
1503644.029999997
 20
4346476.139999997
 10
1503644.159999998
 20
4346475.659999996
 10
1503644.159999998
 20
4346475.089999996
 10
1503644.079999997
 20
4346474.549999997
 10
1503643.949999997
 20
4346473.979999997
 10
1503643.859999997
 20
4346473.429999996
 10
1503643.819999997
 20
4346472.929999996
 10
1503643.819999997
 20
4346472.409999997
 10
1503643.909999998
 20
4346471.859999997
 10
1503644.039999997
 20
4346471.309999997
 10
1503644.249999998
 20
4346470.799999997
 10
1503644.559999997
 20
4346470.269999995
 10
1503644.919999998
 20
4346469.799999996
 10
1503645.319999998
 20
4346469.439999998
 10
1503645.779999998
 20
4346469.199999997
 10
1503646.259999998
 20
4346468.999999997
 10
1503646.739999997
 20
4346468.869999998
 10
1503647.259999997
 20
4346468.749999997
 10
1503647.779999997
 20
4346468.679999996
 10
1503648.339999997
 20
4346468.719999996
 10
1503649.069999998
 20
4346468.739999997
 10
1503649.579999998
 20
4346468.639999996
 10
1503650.089999998
 20
4346468.589999996
 10
1503650.649999998
 20
4346468.649999997
 10
1503651.459999998
 20
4346468.679999998
 10
1503652.039999998
 20
4346468.659999996
 10
1503652.599999998
 20
4346468.549999997
 10
1503653.099999997
 20
4346468.339999995
 10
1503653.529999998
 20
4346468.059999996
 10
1503653.909999998
 20
4346467.719999997
 10
1503654.339999998
 20
4346467.289999995
 10
1503654.709999997
 20
4346466.879999997
 10
1503655.549999997
 20
4346466.019999998
 10
1503655.999999998
 20
4346465.739999998
 10
1503656.449999998
 20
4346465.529999997
 10
1503656.959999997
 20
4346465.339999996
 10
1503658.619999998
 20
4346464.599999996
 10
1503659.049999997
 20
4346464.229999997
 10
1503659.399999998
 20
4346463.839999998
 10
1503659.699999998
 20
4346463.429999996
 10
1503660.029999997
 20
4346462.909999996
 10
1503660.329999997
 20
4346462.499999996
 10
1503660.709999997
 20
4346462.139999997
 10
1503661.159999997
 20
4346461.809999994
 10
1503661.659999997
 20
4346461.509999997
 10
1503662.699999997
 20
4346460.809999995
 10
1503663.059999997
 20
4346460.409999997
 10
1503663.319999997
 20
4346459.889999997
 10
1503663.499999997
 20
4346459.359999996
 10
1503663.639999998
 20
4346458.799999995
 10
1503664.309999998
 20
4346456.649999997
 10
1503664.729999997
 20
4346456.339999996
 10
1503665.229999998
 20
4346456.249999997
 10
1503665.729999998
 20
4346456.289999998
 10
1503666.239999998
 20
4346456.439999998
 10
1503666.759999997
 20
4346456.569999997
 10
1503667.289999997
 20
4346456.519999995
 10
1503667.669999997
 20
4346456.139999996
 10
1503667.769999997
 20
4346455.629999995
 10
1503667.739999997
 20
4346455.039999997
 10
1503667.669999997
 20
4346454.499999997
 10
1503667.579999997
 20
4346453.139999995
 10
1503667.689999998
 20
4346452.639999997
 10
1503667.939999997
 20
4346452.179999996
 10
1503668.379999997
 20
4346451.889999997
 10
1503670.269999997
 20
4346450.539999995
 10
1503670.669999997
 20
4346450.159999996
 10
1503672.479999997
 20
4346448.679999997
 10
1503673.029999997
 20
4346448.679999996
 10
1503673.539999997
 20
4346448.799999997
 10
1503674.019999997
 20
4346449.029999997
 10
1503674.439999997
 20
4346449.299999997
 10
1503674.839999998
 20
4346449.609999996
 10
1503675.309999997
 20
4346449.819999996
 10
1503675.819999997
 20
4346449.789999995
 10
1503676.289999997
 20
4346449.539999997
 10
1503676.689999997
 20
4346449.209999997
 10
1503677.089999998
 20
4346448.819999996
 10
1503677.419999998
 20
4346448.409999996
 10
1503677.879999997
 20
4346447.789999995
 10
1503679.599999997
 20
4346445.719999997
 10
1503680.079999997
 20
4346445.499999996
 10
1503680.599999997
 20
4346445.379999997
 10
1503681.169999998
 20
4346445.309999997
 10
1503682.189999997
 20
4346445.139999997
 10
1503682.689999997
 20
4346444.979999997
 10
1503683.159999997
 20
4346444.729999997
 10
1503683.499999998
 20
4346444.359999997
 10
1503683.609999997
 20
4346443.839999996
 10
1503683.969999997
 20
4346443.479999996
 10
1503684.039999997
 20
4346442.929999995
 10
1503684.069999997
 20
4346442.389999996
 10
1503684.189999997
 20
4346441.839999996
 10
1503684.439999997
 20
4346441.399999997
 10
1503684.819999997
 20
4346440.979999997
 10
1503685.249999998
 20
4346440.699999997
 10
1503685.699999997
 20
4346440.469999997
 10
1503686.139999997
 20
4346440.099999996
 10
1503686.549999998
 20
4346439.659999996
 10
1503686.969999997
 20
4346439.249999995
 10
1503687.399999997
 20
4346438.889999997
 10
1503687.869999997
 20
4346438.429999996
 10
1503692.699999997
 20
4346434.249999996
 10
1503693.169999998
 20
4346434.019999995
 10
1503694.489999997
 20
4346433.249999996
 10
1503694.859999998
 20
4346432.819999996
 10
1503695.109999998
 20
4346432.359999997
 10
1503695.309999997
 20
4346431.879999995
 10
1503695.469999997
 20
4346431.349999996
 10
1503695.689999997
 20
4346430.819999997
 10
1503696.019999997
 20
4346430.419999997
 10
1503696.419999997
 20
4346430.069999996
 10
1503696.849999997
 20
4346429.789999997
 10
1503697.259999998
 20
4346429.459999996
 10
1503697.509999998
 20
4346429.019999995
 10
1503697.589999997
 20
4346428.519999996
 10
1503697.539999998
 20
4346427.999999995
 10
1503697.369999997
 20
4346427.479999997
 10
1503697.149999997
 20
4346426.999999997
 10
1503696.859999998
 20
4346426.519999996
 10
1503696.539999997
 20
4346426.049999997
 10
1503696.179999998
 20
4346425.589999997
 10
1503695.829999997
 20
4346425.199999997
 10
1503695.469999998
 20
4346424.839999997
 10
1503692.249999997
 20
4346421.389999997
 10
1503692.289999997
 20
4346420.879999997
 10
1503692.599999997
 20
4346420.449999997
 10
1503693.069999998
 20
4346420.169999996
 10
1503693.599999998
 20
4346419.999999996
 10
1503694.109999997
 20
4346419.979999997
 10
1503694.659999997
 20
4346420.089999996
 10
1503695.219999997
 20
4346420.229999996
 10
1503695.699999997
 20
4346420.389999997
 10
1503697.329999997
 20
4346420.819999996
 10
1503697.849999997
 20
4346420.779999997
 10
1503698.359999997
 20
4346420.669999996
 10
1503698.929999997
 20
4346420.579999997
 10
1503699.439999997
 20
4346420.609999998
 10
1503699.939999997
 20
4346420.759999997
 10
1503700.429999997
 20
4346420.959999997
 10
1503700.879999998
 20
4346421.209999996
 10
1503701.709999998
 20
4346421.599999995
 10
1503702.199999997
 20
4346421.729999996
 10
1503702.719999997
 20
4346421.929999996
 10
1503703.309999997
 20
4346422.179999996
 10
1503703.779999998
 20
4346422.439999997
 10
1503704.239999998
 20
4346422.749999998
 10
1503704.649999997
 20
4346423.109999998
 10
1503705.079999998
 20
4346423.509999996
 10
1503705.439999998
 20
4346423.949999997
 10
1503705.699999997
 20
4346424.399999996
 10
1503706.409999997
 20
4346425.479999997
 10
1503706.869999997
 20
4346425.799999997
 10
1503707.389999998
 20
4346425.949999997
 10
1503707.919999998
 20
4346425.979999998
 10
1503708.449999998
 20
4346425.959999997
 10
1503709.249999998
 20
4346425.979999999
 10
1503709.739999997
 20
4346426.069999997
 10
1503710.249999998
 20
4346426.189999998
 10
1503710.719999997
 20
4346426.389999996
 10
1503711.339999998
 20
4346426.679999997
 10
1503711.729999998
 20
4346426.989999998
 10
1503712.009999997
 20
4346427.429999995
 10
1503712.229999997
 20
4346427.889999997
 10
1503712.509999997
 20
4346428.349999995
 10
1503714.769999997
 20
4346431.659999998
 10
1503715.299999997
 20
4346431.729999996
 10
1503715.869999997
 20
4346431.729999999
 10
1503716.399999998
 20
4346431.799999997
 10
1503719.969999997
 20
4346431.999999998
 10
1503720.499999998
 20
4346431.919999997
 10
1503720.999999997
 20
4346431.749999998
 10
1503721.765203727
 20
4346431.609452374
  0
LWPOLYLINE
  5
215
330
2
100
AcDbEntity
  8
0
  6
DGN Style 2
 62
     7
370
    13
100
AcDbPolyline
 90
       27
 70
   128
 43
0.0
 10
1503540.247793433
 20
4346502.373215759
 10
1503545.639999997
 20
4346500.239999996
 10
1503550.969999997
 20
4346498.819999996
 10
1503554.749999997
 20
4346497.359999995
 10
1503558.219999997
 20
4346495.679999996
 10
1503562.719999997
 20
4346492.959999998
 10
1503569.219999997
 20
4346488.509999996
 10
1503578.289999997
 20
4346481.549999995
 10
1503589.599999997
 20
4346472.359999995
 10
1503598.419999998
 20
4346465.449999995
 10
1503603.849999998
 20
4346461.029999997
 10
1503612.249999998
 20
4346453.519999996
 10
1503621.199999997
 20
4346446.069999997
 10
1503629.469999997
 20
4346438.889999997
 10
1503635.619999998
 20
4346433.059999996
 10
1503641.959999997
 20
4346426.979999996
 10
1503649.489999997
 20
4346419.229999996
 10
1503655.069999997
 20
4346414.219999995
 10
1503660.129999997
 20
4346408.999999996
 10
1503664.529999998
 20
4346405.519999996
 10
1503668.169999998
 20
4346402.379999995
 10
1503671.409999998
 20
4346399.109999995
 10
1503675.659999998
 20
4346394.829999996
 10
1503680.549999999
 20
4346389.959999995
 10
1503683.719999997
 20
4346385.769999995
 10
1503686.179999997
 20
4346382.289999997
 10
1503688.099999997
 20
4346378.639999996
  0
INSERT
  5
216
330
2
100
AcDbEntity
  8
0
  6
Continuous
 62
     7
370
    30
100
AcDbBlockReference
  2
s
 10
1503868.284292895
 20
4346517.520684791
 30
0.0
 41
1.999999999999999
 42
1.999999999999999
 43
1.999999999999999
 50
359.9999999986347
  0
LWPOLYLINE
  5
221
330
2
100
AcDbEntity
  8
0
  6
SCARPATA4000
 62
    33
370
     0
100
AcDbPolyline
 90
        5
 70
     0
 43
0.0
 10
1503604.959999998
 20
4346335.929999997
 10
1503629.659999998
 20
4346346.179999996
 10
1503648.619999999
 20
4346355.109999997
 10
1503664.809999997
 20
4346362.109999995
 10
1503681.959999998
 20
4346369.549999997
  0
LWPOLYLINE
  5
223
330
2
100
AcDbEntity
  8
0
  6
SCARPATA4000
 62
    33
370
     0
100
AcDbPolyline
 90
        6
 70
     0
 43
0.0
 10
1503681.859999998
 20
4346380.589999996
 10
1503660.729999998
 20
4346371.529999998
 10
1503644.379999998
 20
4346364.159999996
 10
1503627.669999998
 20
4346356.659999996
 10
1503611.349999997
 20
4346349.429999996
 10
1503594.809999997
 20
4346342.429999997
  0
HATCH
  5
224
330
2
100
AcDbEntity
  8
0
  6
Continuous
 62
    23
370
    13
100
AcDbHatch
 10
0.0
 20
0.0
 30
0.0
210
0.0
220
0.0
230
1.0
  2
ANSI31
 70
     0
 71
     1
 91
        1
 92
        1
 93
       20
 72
     1
 10
1503986.609999999
 20
4346243.779999997
 11
1503980.699999999
 21
4346233.519999997
 72
     1
 10
1503980.699999999
 20
4346233.519999997
 11
1503934.959999998
 21
4346259.889999997
 72
     1
 10
1503934.959999998
 20
4346259.889999997
 11
1503940.869999999
 21
4346270.149999998
 72
     1
 10
1503940.869999999
 20
4346270.149999998
 11
1503943.279999998
 21
4346268.769999998
 72
     1
 10
1503943.279999998
 20
4346268.769999998
 11
1503944.509999998
 21
4346268.049999999
 72
     1
 10
1503944.509999998
 20
4346268.049999999
 11
1503947.609999999
 21
4346266.319999998
 72
     1
 10
1503947.609999999
 20
4346266.319999998
 11
1503948.699999999
 21
4346265.639999999
 72
     1
 10
1503948.699999999
 20
4346265.639999999
 11
1503953.259999998
 21
4346263.009999997
 72
     1
 10
1503953.259999998
 20
4346263.009999997
 11
1503954.449999998
 21
4346262.319999998
 72
     1
 10
1503954.449999998
 20
4346262.319999998
 11
1503963.019999998
 21
4346257.379999998
 72
     1
 10
1503963.019999998
 20
4346257.379999998
 11
1503964.199999998
 21
4346256.699999999
 72
     1
 10
1503964.199999998
 20
4346256.699999999
 11
1503968.809999999
 21
4346254.049999998
 72
     1
 10
1503968.809999999
 20
4346254.049999998
 11
1503969.999999998
 21
4346253.359999997
 72
     1
 10
1503969.999999998
 20
4346253.359999997
 11
1503974.969999997
 21
4346250.499999996
 72
     1
 10
1503974.969999997
 20
4346250.499999996
 11
1503976.119999999
 21
4346249.829999997
 72
     1
 10
1503976.119999999
 20
4346249.829999997
 11
1503977.809999998
 21
4346248.869999997
 72
     1
 10
1503977.809999998
 20
4346248.869999997
 11
1503978.819999998
 21
4346248.269999998
 72
     1
 10
1503978.819999998
 20
4346248.269999998
 11
1503983.809999998
 21
4346245.399999999
 72
     1
 10
1503983.809999998
 20
4346245.399999999
 11
1503984.939999998
 21
4346244.739999998
 72
     1
 10
1503984.939999998
 20
4346244.739999998
 11
1503986.609999999
 21
4346243.779999997
 97
        1
330
68
 75
     0
 76
     1
 52
-29.99999999976024
 41
1.999999999999999
 77
     0
 78
     1
 53
15.00000000023976
 43
-1971369.552002519
 44
1334425.430685229
 45
-0.0647047612766407
 46
0.2414814565719963
 79
     0
 98
        0
  0
HATCH
  5
225
330
2
100
AcDbEntity
  8
0
  6
Continuous
 62
    23
370
    13
100
AcDbHatch
 10
0.0
 20
0.0
 30
0.0
210
0.0
220
0.0
230
1.0
  2
ANSI31
 70
     0
 71
     1
 91
        1
 92
        1
 93
        8
 72
     1
 10
1503978.629999997
 20
4346419.169999998
 11
1503947.719999997
 21
4346363.889999997
 72
     1
 10
1503947.719999997
 20
4346363.889999997
 11
1503936.629999997
 21
4346370.089999997
 72
     1
 10
1503936.629999997
 20
4346370.089999997
 11
1503938.809999999
 21
4346373.979999999
 72
     1
 10
1503938.809999999
 20
4346373.979999999
 11
1503936.859999999
 21
4346375.069999997
 72
     1
 10
1503936.859999999
 20
4346375.069999997
 11
1503963.389999997
 21
4346422.629999998
 72
     1
 10
1503963.389999997
 20
4346422.629999998
 11
1503965.379999996
 21
4346421.519999997
 72
     1
 10
1503965.379999996
 20
4346421.519999997
 11
1503967.509999998
 21
4346425.349999997
 72
     1
 10
1503967.509999998
 20
4346425.349999997
 11
1503978.629999997
 21
4346419.169999998
 97
        1
330
69
 75
     0
 76
     1
 52
-29.99999999976024
 41
1.999999999999999
 77
     0
 78
     1
 53
15.00000000023976
 43
-1971369.552002519
 44
1334425.430685229
 45
-0.0647047612766407
 46
0.2414814565719963
 79
     0
 98
        0
  0
HATCH
  5
226
330
2
100
AcDbEntity
  8
0
  6
Continuous
 62
    23
370
    13
100
AcDbHatch
 10
0.0
 20
0.0
 30
0.0
210
0.0
220
0.0
230
1.0
  2
SOLID
 70
     1
 71
     1
 91
        1
 92
        1
 93
        4
 72
     1
 10
1503783.579999998
 20
4346334.139999997
 11
1503782.119999998
 21
4346330.309999996
 72
     1
 10
1503782.119999998
 20
4346330.309999996
 11
1503775.759999998
 21
4346332.729999996
 72
     1
 10
1503775.759999998
 20
4346332.729999996
 11
1503777.219999998
 21
4346336.559999996
 72
     1
 10
1503777.219999998
 20
4346336.559999996
 11
1503783.579999998
 21
4346334.139999997
 97
        1
330
6A
 75
     0
 76
     1
 98
        0
450
        0
451
        0
460
0.0
461
0.0
452
        0
462
0.0
453
        0
470

  0
HATCH
  5
227
330
2
100
AcDbEntity
  8
0
  6
Continuous
 62
    23
370
    13
100
AcDbHatch
 10
0.0
 20
0.0
 30
0.0
210
0.0
220
0.0
230
1.0
  2
SOLID
 70
     1
 71
     1
 91
        1
 92
        1
 93
        4
 72
     1
 10
1503784.675999998
 20
4346328.091999997
 11
1503784.358999998
 21
4346327.269999997
 72
     1
 10
1503784.358999998
 20
4346327.269999997
 11
1503781.450999998
 21
4346328.380999997
 72
     1
 10
1503781.450999998
 20
4346328.380999997
 11
1503781.963999998
 21
4346329.740999999
 72
     1
 10
1503781.963999998
 20
4346329.740999999
 11
1503784.675999998
 21
4346328.091999997
 97
        1
330
6B
 75
     0
 76
     1
 98
        0
450
        0
451
        0
460
0.0
461
0.0
452
        0
462
0.0
453
        0
470

  0
HATCH
  5
228
330
2
100
AcDbEntity
  8
0
  6
Continuous
 62
    23
370
    13
100
AcDbHatch
 10
0.0
 20
0.0
 30
0.0
210
0.0
220
0.0
230
1.0
  2
ANSI31
 70
     0
 71
     1
 91
        1
 92
        1
 93
       16
 72
     1
 10
1503852.579999998
 20
4346371.969999997
 11
1503865.029999998
 21
4346372.859999998
 72
     1
 10
1503865.029999998
 20
4346372.859999998
 11
1503870.679999998
 21
4346378.769999997
 72
     1
 10
1503870.679999998
 20
4346378.769999997
 11
1503876.339999998
 21
4346379.359999998
 72
     1
 10
1503876.339999998
 20
4346379.359999998
 11
1503878.709999997
 21
4346377.389999997
 72
     1
 10
1503878.709999997
 20
4346377.389999997
 11
1503878.899999997
 21
4346376.229999997
 72
     1
 10
1503878.899999997
 20
4346376.229999997
 11
1503883.409999998
 21
4346376.569999997
 72
     1
 10
1503883.409999998
 20
4346376.569999997
 11
1503886.637999998
 21
4346330.915999997
 72
     1
 10
1503886.637999998
 20
4346330.915999997
 11
1503885.404999998
 21
4346329.649999999
 72
     1
 10
1503885.404999998
 20
4346329.649999999
 11
1503884.719999998
 21
4346329.579999999
 72
     1
 10
1503884.719999998
 20
4346329.579999999
 11
1503882.149999998
 21
4346329.279999998
 72
     1
 10
1503882.149999998
 20
4346329.279999998
 11
1503882.049999999
 21
4346328.579999997
 72
     1
 10
1503882.049999999
 20
4346328.579999997
 11
1503880.229999998
 21
4346326.289999997
 72
     1
 10
1503880.229999998
 20
4346326.289999997
 11
1503874.119999999
 21
4346326.069999998
 72
     1
 10
1503874.119999999
 20
4346326.069999998
 11
1503868.199999998
 21
4346330.989999997
 72
     1
 10
1503868.199999998
 20
4346330.989999997
 11
1503855.729999998
 21
4346330.079999998
 72
     1
 10
1503855.729999998
 20
4346330.079999998
 11
1503852.579999998
 21
4346371.969999997
 97
        1
330
6C
 75
     0
 76
     1
 52
-29.99999999976024
 41
1.999999999999999
 77
     0
 78
     1
 53
15.00000000023976
 43
-1971369.552002519
 44
1334425.430685229
 45
-0.0647047612766407
 46
0.2414814565719963
 79
     0
 98
        0
  0
HATCH
  5
229
330
2
100
AcDbEntity
  8
0
  6
Continuous
 62
    23
370
    13
100
AcDbHatch
 10
0.0
 20
0.0
 30
0.0
210
0.0
220
0.0
230
1.0
  2
ANSI31
 70
     0
 71
     1
 91
        1
 92
        1
 93
        4
 72
     1
 10
1503841.399999997
 20
4346370.529999997
 11
1503835.869999998
 21
4346364.299999997
 72
     1
 10
1503835.869999998
 20
4346364.299999997
 11
1503831.829999998
 21
4346367.899999997
 72
     1
 10
1503831.829999998
 20
4346367.899999997
 11
1503837.359999997
 21
4346374.119999999
 72
     1
 10
1503837.359999997
 20
4346374.119999999
 11
1503841.399999997
 21
4346370.529999997
 97
        1
330
6D
 75
     0
 76
     1
 52
-29.99999999976024
 41
1.999999999999999
 77
     0
 78
     1
 53
15.00000000023976
 43
-1971369.552002519
 44
1334425.430685229
 45
-0.0647047612766407
 46
0.2414814565719963
 79
     0
 98
        0
  0
HATCH
  5
22A
330
2
100
AcDbEntity
  8
0
  6
Continuous
 62
    23
370
    13
100
AcDbHatch
 10
0.0
 20
0.0
 30
0.0
210
0.0
220
0.0
230
1.0
  2
ANSI31
 70
     0
 71
     1
 91
        1
 92
        1
 93
        4
 72
     1
 10
1503839.349999998
 20
4346366.269999998
 11
1503849.349999998
 21
4346356.989999997
 72
     1
 10
1503849.349999998
 20
4346356.989999997
 11
1503843.779999998
 21
4346350.989999998
 72
     1
 10
1503843.779999998
 20
4346350.989999998
 11
1503833.779999997
 21
4346360.269999998
 72
     1
 10
1503833.779999997
 20
4346360.269999998
 11
1503839.349999998
 21
4346366.269999998
 97
        1
330
6E
 75
     0
 76
     1
 52
-29.99999999976024
 41
1.999999999999999
 77
     0
 78
     1
 53
15.00000000023976
 43
-1971369.552002519
 44
1334425.430685229
 45
-0.0647047612766407
 46
0.2414814565719963
 79
     0
 98
        0
  0
HATCH
  5
22B
330
2
100
AcDbEntity
  8
0
  6
Continuous
 62
    23
370
    13
100
AcDbHatch
 10
0.0
 20
0.0
 30
0.0
210
0.0
220
0.0
230
1.0
  2
ANSI31
 70
     0
 71
     1
 91
        1
 92
        1
 93
        8
 72
     1
 10
1503767.249999998
 20
4346407.099999995
 11
1503794.459999997
 21
4346382.579999998
 72
     1
 10
1503794.459999997
 20
4346382.579999998
 11
1503789.079999998
 21
4346376.609999997
 72
     1
 10
1503789.079999998
 20
4346376.609999997
 11
1503795.949999997
 21
4346370.419999996
 72
     1
 10
1503795.949999997
 20
4346370.419999996
 11
1503778.719999998
 21
4346351.299999997
 72
     1
 10
1503778.719999998
 20
4346351.299999997
 11
1503744.639999997
 21
4346382.019999995
 72
     1
 10
1503744.639999997
 20
4346382.019999995
 11
1503751.592999998
 21
4346389.747999998
 72
     1
 10
1503751.592999998
 20
4346389.747999998
 11
1503753.235999997
 21
4346391.569999997
 72
     1
 10
1503753.235999997
 20
4346391.569999997
 11
1503767.249999998
 21
4346407.099999995
 97
        1
330
6F
 75
     0
 76
     1
 52
-29.99999999976024
 41
1.999999999999999
 77
     0
 78
     1
 53
15.00000000023976
 43
-1971369.552002519
 44
1334425.430685229
 45
-0.0647047612766407
 46
0.2414814565719963
 79
     0
 98
        0
  0
HATCH
  5
22C
330
2
100
AcDbEntity
  8
0
  6
Continuous
 62
    23
370
    13
100
AcDbHatch
 10
0.0
 20
0.0
 30
0.0
210
0.0
220
0.0
230
1.0
  2
ANSI31
 70
     0
 71
     1
 91
        1
 92
        1
 93
        4
 72
     1
 10
1503869.469999997
 20
4346402.299999997
 11
1503859.359999998
 21
4346391.179999998
 72
     1
 10
1503859.359999998
 20
4346391.179999998
 11
1503854.759999998
 21
4346395.359999998
 72
     1
 10
1503854.759999998
 20
4346395.359999998
 11
1503864.869999998
 21
4346406.479999998
 72
     1
 10
1503864.869999998
 20
4346406.479999998
 11
1503869.469999997
 21
4346402.299999997
 97
        1
330
70
 75
     0
 76
     1
 52
-29.99999999976024
 41
1.999999999999999
 77
     0
 78
     1
 53
15.00000000023976
 43
-1971369.552002519
 44
1334425.430685229
 45
-0.0647047612766407
 46
0.2414814565719963
 79
     0
 98
        0
  0
HATCH
  5
22D
330
2
100
AcDbEntity
  8
0
  6
Continuous
 62
    23
370
    13
100
AcDbHatch
 10
0.0
 20
0.0
 30
0.0
210
0.0
220
0.0
230
1.0
  2
ANSI31
 70
     0
 71
     1
 91
        1
 92
        1
 93
        4
 72
     1
 10
1503878.149999998
 20
4346394.509999998
 11
1503867.869999998
 21
4346383.339999998
 72
     1
 10
1503867.869999998
 20
4346383.339999998
 11
1503862.789999998
 21
4346388.019999998
 72
     1
 10
1503862.789999998
 20
4346388.019999998
 11
1503873.069999998
 21
4346399.189999996
 72
     1
 10
1503873.069999998
 20
4346399.189999996
 11
1503878.149999998
 21
4346394.509999998
 97
        1
330
71
 75
     0
 76
     1
 52
-29.99999999976024
 41
1.999999999999999
 77
     0
 78
     1
 53
15.00000000023976
 43
-1971369.552002519
 44
1334425.430685229
 45
-0.0647047612766407
 46
0.2414814565719963
 79
     0
 98
        0
  0
HATCH
  5
22E
330
2
100
AcDbEntity
  8
0
  6
Continuous
 62
    23
370
    13
100
AcDbHatch
 10
0.0
 20
0.0
 30
0.0
210
0.0
220
0.0
230
1.0
  2
SOLID
 70
     1
 71
     1
 91
        1
 92
        1
 93
        4
 72
     1
 10
1503635.719999998
 20
4346394.749999996
 11
1503638.209999998
 21
4346392.339999996
 72
     1
 10
1503638.209999998
 20
4346392.339999996
 11
1503636.249999997
 21
4346390.859999997
 72
     1
 10
1503636.249999997
 20
4346390.859999997
 11
1503633.719999998
 21
4346393.269999995
 72
     1
 10
1503633.719999998
 20
4346393.269999995
 11
1503635.719999998
 21
4346394.749999996
 97
        1
330
72
 75
     0
 76
     1
 98
        0
450
        0
451
        0
460
0.0
461
0.0
452
        0
462
0.0
453
        0
470

  0
HATCH
  5
22F
330
2
100
AcDbEntity
  8
0
  6
Continuous
 62
    23
370
    13
100
AcDbHatch
 10
0.0
 20
0.0
 30
0.0
210
0.0
220
0.0
230
1.0
  2
ANSI31
 70
     0
 71
     1
 91
        1
 92
        1
 93
        8
 72
     1
 10
1503904.949999997
 20
4346360.039999997
 11
1503909.019999997
 21
4346356.889999997
 72
     1
 10
1503909.019999997
 20
4346356.889999997
 11
1503909.549999998
 21
4346351.789999998
 72
     1
 10
1503909.549999998
 20
4346351.789999998
 11
1503906.369999998
 21
4346347.659999996
 72
     1
 10
1503906.369999998
 20
4346347.659999996
 11
1503901.389999998
 21
4346346.959999998
 72
     1
 10
1503901.389999998
 20
4346346.959999998
 11
1503897.229999998
 21
4346350.099999996
 72
     1
 10
1503897.229999998
 20
4346350.099999996
 11
1503896.389999997
 21
4346355.339999998
 72
     1
 10
1503896.389999997
 20
4346355.339999998
 11
1503899.519999998
 21
4346359.319999999
 72
     1
 10
1503899.519999998
 20
4346359.319999999
 11
1503904.949999997
 21
4346360.039999997
 97
        1
330
73
 75
     0
 76
     1
 52
-29.99999999976024
 41
1.999999999999999
 77
     0
 78
     1
 53
15.00000000023976
 43
-1971369.552002519
 44
1334425.430685229
 45
-0.0647047612766407
 46
0.2414814565719963
 79
     0
 98
        0
  0
HATCH
  5
230
330
2
100
AcDbEntity
  8
0
  6
Continuous
 62
    23
370
    13
100
AcDbHatch
 10
0.0
 20
0.0
 30
0.0
210
0.0
220
0.0
230
1.0
  2
ANSI31
 70
     0
 71
     1
 91
        1
 92
        1
 93
        4
 72
     1
 10
1503938.289999998
 20
4346339.449999997
 11
1503938.919999998
 21
4346337.709999997
 72
     1
 10
1503938.919999998
 20
4346337.709999997
 11
1503936.929999997
 21
4346336.999999997
 72
     1
 10
1503936.929999997
 20
4346336.999999997
 11
1503936.299999997
 21
4346338.729999998
 72
     1
 10
1503936.299999997
 20
4346338.729999998
 11
1503938.289999998
 21
4346339.449999997
 97
        1
330
74
 75
     0
 76
     1
 52
-29.99999999976024
 41
1.999999999999999
 77
     0
 78
     1
 53
15.00000000023976
 43
-1971369.552002519
 44
1334425.430685229
 45
-0.0647047612766407
 46
0.2414814565719963
 79
     0
 98
        0
  0
HATCH
  5
231
330
2
100
AcDbEntity
  8
0
  6
Continuous
 62
    23
370
    13
100
AcDbHatch
 10
0.0
 20
0.0
 30
0.0
210
0.0
220
0.0
230
1.0
  2
ANSI31
 70
     0
 71
     1
 91
        1
 92
        1
 93
       68
 72
     1
 10
1503858.429999997
 20
4346637.989999998
 11
1503863.209999997
 21
4346634.449999997
 72
     1
 10
1503863.209999997
 20
4346634.449999997
 11
1503863.869999997
 21
4346635.249999998
 72
     1
 10
1503863.869999997
 20
4346635.249999998
 11
1503868.009999997
 21
4346631.969999998
 72
     1
 10
1503868.009999997
 20
4346631.969999998
 11
1503862.639999996
 21
4346624.519999997
 72
     1
 10
1503862.639999996
 20
4346624.519999997
 11
1503858.059999996
 21
4346618.169999998
 72
     1
 10
1503858.059999996
 20
4346618.169999998
 11
1503855.839999997
 21
4346619.569999998
 72
     1
 10
1503855.839999997
 20
4346619.569999998
 11
1503851.379999996
 21
4346613.239999999
 72
     1
 10
1503851.379999996
 20
4346613.239999999
 11
1503855.199999996
 21
4346610.479999998
 72
     1
 10
1503855.199999996
 20
4346610.479999998
 11
1503853.459999997
 21
4346608.159999998
 72
     1
 10
1503853.459999997
 20
4346608.159999998
 11
1503854.639999996
 21
4346607.369999997
 72
     1
 10
1503854.639999996
 20
4346607.369999997
 11
1503853.309999997
 21
4346605.379999997
 72
     1
 10
1503853.309999997
 20
4346605.379999997
 11
1503857.019999997
 21
4346602.569999999
 72
     1
 10
1503857.019999997
 20
4346602.569999999
 11
1503858.939999996
 21
4346605.179999998
 72
     1
 10
1503858.939999996
 20
4346605.179999998
 11
1503862.819999996
 21
4346602.399999997
 72
     1
 10
1503862.819999996
 20
4346602.399999997
 11
1503865.669999996
 21
4346606.179999998
 72
     1
 10
1503865.669999996
 20
4346606.179999998
 11
1503874.071999997
 21
4346600.065999999
 72
     1
 10
1503874.071999997
 20
4346600.065999999
 11
1503868.609999996
 21
4346592.319999997
 72
     1
 10
1503868.609999996
 20
4346592.319999997
 11
1503864.919999997
 21
4346595.109999999
 72
     1
 10
1503864.919999997
 20
4346595.109999999
 11
1503856.299999997
 21
4346601.589999996
 72
     1
 10
1503856.299999997
 20
4346601.589999996
 11
1503855.809999997
 21
4346600.909999998
 72
     1
 10
1503855.809999997
 20
4346600.909999998
 11
1503847.599999998
 21
4346607.109999998
 72
     1
 10
1503847.599999998
 20
4346607.109999998
 11
1503845.309999997
 21
4346603.859999998
 72
     1
 10
1503845.309999997
 20
4346603.859999998
 11
1503849.089999997
 21
4346600.929999998
 72
     1
 10
1503849.089999997
 20
4346600.929999998
 11
1503845.709999997
 21
4346596.339999997
 72
     1
 10
1503845.709999997
 20
4346596.339999997
 11
1503846.839999997
 21
4346595.519999998
 72
     1
 10
1503846.839999997
 20
4346595.519999998
 11
1503845.869999997
 21
4346594.259999998
 72
     1
 10
1503845.869999997
 20
4346594.259999998
 11
1503843.279999997
 21
4346596.109999997
 72
     1
 10
1503843.279999997
 20
4346596.109999997
 11
1503838.499999997
 21
4346589.869999997
 72
     1
 10
1503838.499999997
 20
4346589.869999997
 11
1503840.819999997
 21
4346588.169999996
 72
     1
 10
1503840.819999997
 20
4346588.169999996
 11
1503839.192999997
 21
4346585.929999996
 72
     1
 10
1503839.192999997
 20
4346585.929999996
 11
1503837.949999997
 21
4346586.819999997
 72
     1
 10
1503837.949999997
 20
4346586.819999997
 11
1503830.999999997
 21
4346577.329999997
 72
     1
 10
1503830.999999997
 20
4346577.329999997
 11
1503829.069999996
 21
4346578.749999996
 72
     1
 10
1503829.069999996
 20
4346578.749999996
 11
1503824.949999997
 21
4346573.239999997
 72
     1
 10
1503824.949999997
 20
4346573.239999997
 11
1503824.059999997
 21
4346573.929999996
 72
     1
 10
1503824.059999997
 20
4346573.929999996
 11
1503820.709999997
 21
4346569.609999995
 72
     1
 10
1503820.709999997
 20
4346569.609999995
 11
1503818.839999997
 21
4346567.209999997
 72
     1
 10
1503818.839999997
 20
4346567.209999997
 11
1503819.862999996
 21
4346566.473999997
 72
     1
 10
1503819.862999996
 20
4346566.473999997
 11
1503814.989999997
 21
4346559.699999997
 72
     1
 10
1503814.989999997
 20
4346559.699999997
 11
1503816.339999998
 21
4346558.649999997
 72
     1
 10
1503816.339999998
 20
4346558.649999997
 11
1503814.999999997
 21
4346556.929999996
 72
     1
 10
1503814.999999997
 20
4346556.929999996
 11
1503811.989999997
 21
4346559.159999996
 72
     1
 10
1503811.989999997
 20
4346559.159999996
 11
1503810.159999997
 21
4346556.709999995
 72
     1
 10
1503810.159999997
 20
4346556.709999995
 11
1503811.839999997
 21
4346555.459999995
 72
     1
 10
1503811.839999997
 20
4346555.459999995
 11
1503807.919999997
 21
4346550.229999998
 72
     1
 10
1503807.919999997
 20
4346550.229999998
 11
1503805.739999997
 21
4346547.309999997
 72
     1
 10
1503805.739999997
 20
4346547.309999997
 11
1503806.748999997
 21
4346546.578999998
 72
     1
 10
1503806.748999997
 20
4346546.578999998
 11
1503798.639999997
 21
4346535.539999996
 72
     1
 10
1503798.639999997
 20
4346535.539999996
 11
1503802.219999997
 21
4346532.979999999
 72
     1
 10
1503802.219999997
 20
4346532.979999999
 11
1503803.649999997
 21
4346534.779999998
 72
     1
 10
1503803.649999997
 20
4346534.779999998
 11
1503807.499999997
 21
4346531.879999997
 72
     1
 10
1503807.499999997
 20
4346531.879999997
 11
1503803.949999997
 21
4346527.509999997
 72
     1
 10
1503803.949999997
 20
4346527.509999997
 11
1503787.169999997
 21
4346540.069999998
 72
     1
 10
1503787.169999997
 20
4346540.069999998
 11
1503803.259999997
 21
4346561.819999998
 72
     1
 10
1503803.259999997
 20
4346561.819999998
 11
1503820.499999997
 21
4346585.089999997
 72
     1
 10
1503820.499999997
 20
4346585.089999997
 11
1503822.244999997
 21
4346583.769999996
 72
     1
 10
1503822.244999997
 20
4346583.769999996
 11
1503824.353999997
 21
4346586.557999998
 72
     1
 10
1503824.353999997
 20
4346586.557999998
 11
1503822.608999996
 21
4346587.877999996
 72
     1
 10
1503822.608999996
 20
4346587.877999996
 11
1503825.544999997
 21
4346591.758999997
 72
     1
 10
1503825.544999997
 20
4346591.758999997
 11
1503827.289999997
 21
4346590.438999997
 72
     1
 10
1503827.289999997
 20
4346590.438999997
 11
1503829.398999997
 21
4346593.226999997
 72
     1
 10
1503829.398999997
 20
4346593.226999997
 11
1503827.653999998
 21
4346594.546999997
 72
     1
 10
1503827.653999998
 20
4346594.546999997
 11
1503834.979999996
 21
4346604.229999996
 72
     1
 10
1503834.979999996
 20
4346604.229999996
 11
1503841.859999997
 21
4346614.059999997
 72
     1
 10
1503841.859999997
 20
4346614.059999997
 11
1503844.549999997
 21
4346618.149999996
 72
     1
 10
1503844.549999997
 20
4346618.149999996
 11
1503843.999999997
 21
4346618.549999996
 72
     1
 10
1503843.999999997
 20
4346618.549999996
 11
1503852.129999996
 21
4346629.689999998
 72
     1
 10
1503852.129999996
 20
4346629.689999998
 11
1503858.429999997
 21
4346637.989999998
 97
        1
330
75
 75
     0
 76
     1
 52
-29.99999999976024
 41
1.999999999999999
 77
     0
 78
     1
 53
15.00000000023976
 43
-1971369.552002519
 44
1334425.430685229
 45
-0.0647047612766407
 46
0.2414814565719963
 79
     0
 98
        0
  0
HATCH
  5
232
330
2
100
AcDbEntity
  8
0
  6
Continuous
 62
    23
370
    13
100
AcDbHatch
 10
0.0
 20
0.0
 30
0.0
210
0.0
220
0.0
230
1.0
  2
ANSI31
 70
     0
 71
     1
 91
        1
 92
        1
 93
       44
 72
     1
 10
1503999.999999998
 20
4346494.317999998
 11
1503987.379999997
 21
4346502.449999999
 72
     1
 10
1503987.379999997
 20
4346502.449999999
 11
1503986.589999998
 21
4346501.219999997
 72
     1
 10
1503986.589999998
 20
4346501.219999997
 11
1503982.239999998
 21
4346504.019999995
 72
     1
 10
1503982.239999998
 20
4346504.019999995
 11
1503982.959999998
 21
4346505.129999997
 72
     1
 10
1503982.959999998
 20
4346505.129999997
 11
1503960.849999997
 21
4346519.309999997
 72
     1
 10
1503960.849999997
 20
4346519.309999997
 11
1503960.069999997
 21
4346518.099999998
 72
     1
 10
1503960.069999997
 20
4346518.099999998
 11
1503955.729999997
 21
4346520.889999998
 72
     1
 10
1503955.729999997
 20
4346520.889999998
 11
1503956.459999997
 21
4346522.019999998
 72
     1
 10
1503956.459999997
 20
4346522.019999998
 11
1503955.319999998
 21
4346522.749999998
 72
     1
 10
1503955.319999998
 20
4346522.749999998
 11
1503960.149999997
 21
4346530.259999997
 72
     1
 10
1503960.149999997
 20
4346530.259999997
 11
1503964.988999997
 21
4346527.135999997
 72
     1
 10
1503964.988999997
 20
4346527.135999997
 11
1503966.126999997
 21
4346528.896999997
 72
     1
 10
1503966.126999997
 20
4346528.896999997
 11
1503967.776999997
 21
4346527.831999998
 72
     1
 10
1503967.776999997
 20
4346527.831999998
 11
1503966.639999996
 21
4346526.069999998
 72
     1
 10
1503966.639999996
 20
4346526.069999998
 11
1503968.629999997
 21
4346524.799999999
 72
     1
 10
1503968.629999997
 20
4346524.799999999
 11
1503969.739999997
 21
4346526.529999998
 72
     1
 10
1503969.739999997
 20
4346526.529999998
 11
1503975.439999997
 21
4346522.859999999
 72
     1
 10
1503975.439999997
 20
4346522.859999999
 11
1503974.419999997
 21
4346521.269999995
 72
     1
 10
1503974.419999997
 20
4346521.269999995
 11
1503979.059999997
 21
4346518.289999997
 72
     1
 10
1503979.059999997
 20
4346518.289999997
 11
1503980.129999997
 21
4346519.959999997
 72
     1
 10
1503980.129999997
 20
4346519.959999997
 11
1503985.779999997
 21
4346516.329999998
 72
     1
 10
1503985.779999997
 20
4346516.329999998
 11
1503984.739999997
 21
4346514.709999997
 72
     1
 10
1503984.739999997
 20
4346514.709999997
 11
1503986.959999997
 21
4346513.279999999
 72
     1
 10
1503986.959999997
 20
4346513.279999999
 11
1503988.032999997
 21
4346514.946999997
 72
     1
 10
1503988.032999997
 20
4346514.946999997
 11
1503989.496999997
 21
4346514.004999997
 72
     1
 10
1503989.496999997
 20
4346514.004999997
 11
1503988.422999997
 21
4346512.337999997
 72
     1
 10
1503988.422999997
 20
4346512.337999997
 11
1503995.159999998
 21
4346507.999999998
 72
     1
 10
1503995.159999998
 20
4346507.999999998
 11
1503996.269999997
 21
4346509.709999997
 72
     1
 10
1503996.269999997
 20
4346509.709999997
 11
1503999.999999997
 21
4346507.305999998
 72
     1
 10
1503999.999999997
 20
4346507.305999998
 11
1504001.979999997
 21
4346506.029999997
 72
     1
 10
1504001.979999997
 20
4346506.029999997
 11
1504000.909999996
 21
4346504.369999998
 72
     1
 10
1504000.909999996
 20
4346504.369999998
 11
1504005.549999997
 21
4346501.379999997
 72
     1
 10
1504005.549999997
 20
4346501.379999997
 11
1504006.629999998
 21
4346503.039999999
 72
     1
 10
1504006.629999998
 20
4346503.039999999
 11
1504012.409999997
 21
4346499.299999996
 72
     1
 10
1504012.409999997
 20
4346499.299999996
 11
1504011.249999997
 21
4346497.519999998
 72
     1
 10
1504011.249999997
 20
4346497.519999998
 11
1504013.309999997
 21
4346496.189999998
 72
     1
 10
1504013.309999997
 20
4346496.189999998
 11
1504014.509999997
 21
4346498.045999998
 72
     1
 10
1504014.509999997
 20
4346498.045999998
 11
1504016.150999997
 21
4346496.985999998
 72
     1
 10
1504016.150999997
 20
4346496.985999998
 11
1504014.950999998
 21
4346495.128999999
 72
     1
 10
1504014.950999998
 20
4346495.128999999
 11
1504019.589999997
 21
4346492.129999999
 72
     1
 10
1504019.589999997
 20
4346492.129999999
 11
1504014.969999996
 21
4346484.999999998
 72
     1
 10
1504014.969999996
 20
4346484.999999998
 11
1504013.959999997
 21
4346485.649999998
 72
     1
 10
1504013.959999997
 20
4346485.649999998
 11
1504009.509999997
 21
4346488.189999997
 72
     1
 10
1504009.509999997
 20
4346488.189999997
 11
1503999.999999998
 21
4346494.317999998
 97
        1
330
76
 75
     0
 76
     1
 52
-29.99999999976024
 41
1.999999999999999
 77
     0
 78
     1
 53
15.00000000023976
 43
-1971369.552002519
 44
1334425.430685229
 45
-0.0647047612766407
 46
0.2414814565719963
 79
     0
 98
        0
  0
HATCH
  5
233
330
2
100
AcDbEntity
  8
0
  6
Continuous
 62
    23
370
    13
100
AcDbHatch
 10
0.0
 20
0.0
 30
0.0
210
0.0
220
0.0
230
1.0
  2
ANSI31
 70
     0
 71
     1
 91
        1
 92
        1
 93
       14
 72
     1
 10
1503999.999999997
 20
4346457.470999997
 11
1504038.349999997
 21
4346484.189999999
 72
     1
 10
1504038.349999997
 20
4346484.189999999
 11
1504039.649999997
 21
4346482.309999998
 72
     1
 10
1504039.649999997
 20
4346482.309999998
 11
1504043.289999998
 21
4346484.839999999
 72
     1
 10
1504043.289999998
 20
4346484.839999999
 11
1504050.389999997
 21
4346474.639999997
 72
     1
 10
1504050.389999997
 20
4346474.639999997
 11
1504047.635999997
 21
4346472.718999999
 72
     1
 10
1504047.635999997
 20
4346472.718999999
 11
1504048.998999998
 21
4346470.765999999
 72
     1
 10
1504048.998999998
 20
4346470.765999999
 11
1504045.678999998
 21
4346468.450999998
 72
     1
 10
1504045.678999998
 20
4346468.450999998
 11
1504044.316999998
 21
4346470.403999999
 72
     1
 10
1504044.316999998
 20
4346470.403999999
 11
1503999.999999998
 21
4346439.493999999
 72
     1
 10
1503999.999999998
 20
4346439.493999999
 11
1503983.749999998
 21
4346428.159999998
 72
     1
 10
1503983.749999998
 20
4346428.159999998
 11
1503976.589999997
 21
4346438.429999998
 72
     1
 10
1503976.589999997
 20
4346438.429999998
 11
1503980.179999998
 21
4346440.929999997
 72
     1
 10
1503980.179999998
 20
4346440.929999997
 11
1503978.899999998
 21
4346442.769999998
 72
     1
 10
1503978.899999998
 20
4346442.769999998
 11
1503999.999999997
 21
4346457.470999997
 97
        1
330
77
 75
     0
 76
     1
 52
-29.99999999976024
 41
1.999999999999999
 77
     0
 78
     1
 53
15.00000000023976
 43
-1971369.552002519
 44
1334425.430685229
 45
-0.0647047612766407
 46
0.2414814565719963
 79
     0
 98
        0
  0
HATCH
  5
234
330
2
100
AcDbEntity
  8
0
  6
Continuous
 62
    23
370
    13
100
AcDbHatch
 10
0.0
 20
0.0
 30
0.0
210
0.0
220
0.0
230
1.0
  2
ANSI31
 70
     0
 71
     1
 91
        1
 92
        1
 93
       16
 72
     1
 10
1503999.999999998
 20
4346337.443999998
 11
1503999.209999998
 21
4346336.419999998
 72
     1
 10
1503999.209999998
 20
4346336.419999998
 11
1503998.667999998
 21
4346335.713999998
 72
     1
 10
1503998.667999998
 20
4346335.713999998
 11
1503997.837999998
 21
4346334.633999997
 72
     1
 10
1503997.837999998
 20
4346334.633999997
 11
1503993.359999998
 21
4346328.839999998
 72
     1
 10
1503993.359999998
 20
4346328.839999998
 11
1503992.599999998
 21
4346327.859999997
 72
     1
 10
1503992.599999998
 20
4346327.859999997
 11
1503991.978999998
 21
4346327.050999997
 72
     1
 10
1503991.978999998
 20
4346327.050999997
 11
1503989.609999999
 21
4346323.979999998
 72
     1
 10
1503989.609999999
 20
4346323.979999998
 11
1503987.039999998
 21
4346320.649999999
 72
     1
 10
1503987.039999998
 20
4346320.649999999
 11
1503986.009999998
 21
4346320.679999998
 72
     1
 10
1503986.009999998
 20
4346320.679999998
 11
1503977.109999998
 21
4346327.859999997
 72
     1
 10
1503977.109999998
 20
4346327.859999997
 11
1503995.699999998
 21
4346351.519999998
 72
     1
 10
1503995.699999998
 20
4346351.519999998
 11
1503999.999999998
 21
4346347.814999997
 72
     1
 10
1503999.999999998
 20
4346347.814999997
 11
1504004.002999997
 21
4346344.292999997
 72
     1
 10
1504004.002999997
 20
4346344.292999997
 11
1504002.973999998
 21
4346342.957999999
 72
     1
 10
1504002.973999998
 20
4346342.957999999
 11
1504003.779999998
 21
4346342.335999997
 72
     1
 10
1504003.779999998
 20
4346342.335999997
 11
1503999.999999998
 21
4346337.443999998
 97
        1
330
78
 75
     0
 76
     1
 52
-29.99999999976024
 41
1.999999999999999
 77
     0
 78
     1
 53
15.00000000023976
 43
-1971369.552002519
 44
1334425.430685229
 45
-0.0647047612766407
 46
0.2414814565719963
 79
     0
 98
        0
  0
HATCH
  5
235
330
2
100
AcDbEntity
  8
0
  6
Continuous
 62
    23
370
    13
100
AcDbHatch
 10
0.0
 20
0.0
 30
0.0
210
0.0
220
0.0
230
1.0
  2
ANSI31
 70
     0
 71
     1
 91
        1
 92
        1
 93
       21
 72
     1
 10
1503999.999999998
 20
4346289.023999998
 11
1503964.589999998
 21
4346309.479999998
 72
     1
 10
1503964.589999998
 20
4346309.479999998
 11
1503964.889999998
 21
4346309.999999999
 72
     1
 10
1503964.889999998
 20
4346309.999999999
 11
1503979.699999999
 21
4346311.449999998
 72
     1
 10
1503979.699999999
 20
4346311.449999998
 11
1503979.299999998
 21
4346309.729999997
 72
     1
 10
1503979.299999998
 20
4346309.729999997
 11
1503982.099999997
 21
4346308.209999997
 72
     1
 10
1503982.099999997
 20
4346308.209999997
 11
1503983.569999997
 21
4346310.999999998
 72
     1
 10
1503983.569999997
 20
4346310.999999998
 11
1503983.899999998
 21
4346311.629999998
 72
     1
 10
1503983.899999998
 20
4346311.629999998
 11
1503992.879999998
 21
4346312.299999997
 72
     1
 10
1503992.879999998
 20
4346312.299999997
 11
1503990.269999998
 21
4346306.639999997
 72
     1
 10
1503990.269999998
 20
4346306.639999997
 11
1503988.729999997
 21
4346307.449999998
 72
     1
 10
1503988.729999997
 20
4346307.449999998
 11
1503987.529999998
 21
4346305.259999998
 72
     1
 10
1503987.529999998
 20
4346305.259999998
 11
1503991.329999998
 21
4346303.199999997
 72
     1
 10
1503991.329999998
 20
4346303.199999997
 11
1503991.799999998
 21
4346304.139999997
 72
     1
 10
1503991.799999998
 20
4346304.139999997
 11
1503994.359999999
 21
4346302.749999998
 72
     1
 10
1503994.359999999
 20
4346302.749999998
 11
1503994.545999998
 21
4346302.650999996
 72
     1
 10
1503994.545999998
 20
4346302.650999996
 11
1503999.999999998
 21
4346299.676999997
 72
     1
 10
1503999.999999998
 20
4346299.676999997
 11
1504004.349999998
 21
4346297.309999997
 72
     1
 10
1504004.349999998
 20
4346297.309999997
 11
1504007.059999997
 21
4346301.899999998
 72
     1
 10
1504007.059999997
 20
4346301.899999998
 11
1504014.279999998
 21
4346297.619999999
 72
     1
 10
1504014.279999998
 20
4346297.619999999
 11
1504007.069999998
 21
4346284.939999997
 72
     1
 10
1504007.069999998
 20
4346284.939999997
 11
1503999.999999998
 21
4346289.023999998
 97
        1
330
79
 75
     0
 76
     1
 52
-29.99999999976024
 41
1.999999999999999
 77
     0
 78
     1
 53
15.00000000023976
 43
-1971369.552002519
 44
1334425.430685229
 45
-0.0647047612766407
 46
0.2414814565719963
 79
     0
 98
        0
  0
HATCH
  5
236
330
2
100
AcDbEntity
  8
0
  6
Continuous
 62
    23
370
    13
100
AcDbHatch
 10
0.0
 20
0.0
 30
0.0
210
0.0
220
0.0
230
1.0
  2
ANSI31
 70
     0
 71
     1
 91
        1
 92
        1
 93
       41
 72
     1
 10
1503999.999999999
 20
4346270.089999998
 11
1503996.169999998
 21
4346263.049999997
 72
     1
 10
1503996.169999998
 20
4346263.049999997
 11
1503988.624999998
 21
4346267.171999998
 72
     1
 10
1503988.624999998
 20
4346267.171999998
 11
1503987.559999998
 21
4346267.739999998
 72
     1
 10
1503987.559999998
 20
4346267.739999998
 11
1503985.189999998
 21
4346263.129999997
 72
     1
 10
1503985.189999998
 20
4346263.129999997
 11
1503982.279999998
 21
4346264.779999997
 72
     1
 10
1503982.279999998
 20
4346264.779999997
 11
1503985.009999999
 21
4346270.269999997
 72
     1
 10
1503985.009999999
 20
4346270.269999997
 11
1503967.869999999
 21
4346280.259999998
 72
     1
 10
1503967.869999999
 20
4346280.259999998
 11
1503964.919999998
 21
4346274.669999998
 72
     1
 10
1503964.919999998
 20
4346274.669999998
 11
1503962.869999999
 21
4346275.839999998
 72
     1
 10
1503962.869999999
 20
4346275.839999998
 11
1503965.149999998
 21
4346279.479999997
 72
     1
 10
1503965.149999998
 20
4346279.479999997
 11
1503964.829999998
 21
4346282.119999997
 72
     1
 10
1503964.829999998
 20
4346282.119999997
 11
1503960.419999998
 21
4346284.929999998
 72
     1
 10
1503960.419999998
 20
4346284.929999998
 11
1503956.999999999
 21
4346279.179999998
 72
     1
 10
1503956.999999999
 20
4346279.179999998
 11
1503953.899999999
 21
4346280.939999999
 72
     1
 10
1503953.899999999
 20
4346280.939999999
 11
1503957.649999998
 21
4346286.909999998
 72
     1
 10
1503957.649999998
 20
4346286.909999998
 11
1503958.712999998
 21
4346288.466999998
 72
     1
 10
1503958.712999998
 20
4346288.466999998
 11
1503954.239999998
 21
4346291.521999998
 72
     1
 10
1503954.239999998
 20
4346291.521999998
 11
1503953.543999998
 21
4346290.504999998
 72
     1
 10
1503953.543999998
 20
4346290.504999998
 11
1503949.445999998
 21
4346293.299999997
 72
     1
 10
1503949.445999998
 20
4346293.299999997
 11
1503951.749999998
 21
4346297.066999998
 72
     1
 10
1503951.749999998
 20
4346297.066999998
 11
1503952.589999998
 21
4346298.439999999
 72
     1
 10
1503952.589999998
 20
4346298.439999999
 11
1503947.149999998
 21
4346301.839999997
 72
     1
 10
1503947.149999998
 20
4346301.839999997
 11
1503952.339999998
 21
4346307.069999999
 72
     1
 10
1503952.339999998
 20
4346307.069999999
 11
1503956.499999998
 21
4346304.679999997
 72
     1
 10
1503956.499999998
 20
4346304.679999997
 11
1503955.299999998
 21
4346302.749999998
 72
     1
 10
1503955.299999998
 20
4346302.749999998
 11
1503963.949999998
 21
4346296.919999997
 72
     1
 10
1503963.949999998
 20
4346296.919999997
 11
1503963.559999998
 21
4346296.299999997
 72
     1
 10
1503963.559999998
 20
4346296.299999997
 11
1503965.393999998
 21
4346295.244999998
 72
     1
 10
1503965.393999998
 20
4346295.244999998
 11
1503974.189999998
 21
4346289.919999998
 72
     1
 10
1503974.189999998
 20
4346289.919999998
 11
1503975.389999998
 21
4346292.229999998
 72
     1
 10
1503975.389999998
 20
4346292.229999998
 11
1503977.059999998
 21
4346291.369999997
 72
     1
 10
1503977.059999998
 20
4346291.369999997
 11
1503975.849999998
 21
4346289.069999998
 72
     1
 10
1503975.849999998
 20
4346289.069999998
 11
1503987.589999999
 21
4346283.049999999
 72
     1
 10
1503987.589999999
 20
4346283.049999999
 11
1503989.208999997
 21
4346285.867999997
 72
     1
 10
1503989.208999997
 20
4346285.867999997
 11
1503993.069999997
 21
4346283.659999998
 72
     1
 10
1503993.069999997
 20
4346283.659999998
 11
1503990.799999999
 21
4346279.879999997
 72
     1
 10
1503990.799999999
 20
4346279.879999997
 11
1503993.409999998
 21
4346278.259999998
 72
     1
 10
1503993.409999998
 20
4346278.259999998
 11
1503993.009999998
 21
4346277.549999997
 72
     1
 10
1503993.009999998
 20
4346277.549999997
 11
1503999.999999998
 21
4346273.637999998
 72
     1
 10
1503999.999999998
 20
4346273.637999998
 11
1504001.479999999
 21
4346272.809999998
 72
     1
 10
1504001.479999999
 20
4346272.809999998
 11
1503999.999999999
 21
4346270.089999998
 97
        1
330
7A
 75
     0
 76
     1
 52
-29.99999999976024
 41
1.999999999999999
 77
     0
 78
     1
 53
15.00000000023976
 43
-1971369.552002519
 44
1334425.430685229
 45
-0.0647047612766407
 46
0.2414814565719963
 79
     0
 98
        0
  0
HATCH
  5
237
330
2
100
AcDbEntity
  8
0
  6
Continuous
 62
    23
370
    13
100
AcDbHatch
 10
0.0
 20
0.0
 30
0.0
210
0.0
220
0.0
230
1.0
  2
ANSI31
 70
     0
 71
     1
 91
        1
 92
        1
 93
       75
 72
     1
 10
1503999.999999998
 20
4346202.644999998
 11
1503999.209999998
 21
4346203.519999997
 72
     1
 10
1503999.209999998
 20
4346203.519999997
 11
1503998.219999998
 21
4346202.609999997
 72
     1
 10
1503998.219999998
 20
4346202.609999997
 11
1503996.269999998
 21
4346204.889999997
 72
     1
 10
1503996.269999998
 20
4346204.889999997
 11
1503995.430999999
 21
4346205.867999999
 72
     1
 10
1503995.430999999
 20
4346205.867999999
 11
1503994.700999999
 21
4346206.707999999
 72
     1
 10
1503994.700999999
 20
4346206.707999999
 11
1503993.715999999
 21
4346207.853999999
 72
     1
 10
1503993.715999999
 20
4346207.853999999
 11
1503991.889999998
 21
4346209.999999998
 72
     1
 10
1503991.889999998
 20
4346209.999999998
 11
1503989.789999998
 21
4346212.429999998
 72
     1
 10
1503989.789999998
 20
4346212.429999998
 11
1503989.211999999
 21
4346213.118999998
 72
     1
 10
1503989.211999999
 20
4346213.118999998
 11
1503988.481999999
 21
4346213.958999999
 72
     1
 10
1503988.481999999
 20
4346213.958999999
 11
1503986.719999998
 21
4346216.009999998
 72
     1
 10
1503986.719999998
 20
4346216.009999998
 11
1503985.989999999
 21
4346216.849999999
 72
     1
 10
1503985.989999999
 20
4346216.849999999
 11
1503985.306999999
 21
4346217.667999998
 72
     1
 10
1503985.306999999
 20
4346217.667999998
 11
1503983.229999998
 21
4346220.109999997
 72
     1
 10
1503983.229999998
 20
4346220.109999997
 11
1503981.085999999
 21
4346222.565999998
 72
     1
 10
1503981.085999999
 20
4346222.565999998
 11
1503978.899999999
 21
4346225.109999998
 72
     1
 10
1503978.899999999
 20
4346225.109999998
 11
1503977.846999999
 21
4346226.358
 72
     1
 10
1503977.846999999
 20
4346226.358
 11
1503976.039999999
 21
4346228.459999998
 72
     1
 10
1503976.039999999
 20
4346228.459999998
 11
1503974.569999998
 21
4346227.109999999
 72
     1
 10
1503974.569999998
 20
4346227.109999999
 11
1503930.219999998
 21
4346252.139999997
 72
     1
 10
1503930.219999998
 20
4346252.139999997
 11
1503923.829999999
 21
4346241.689999998
 72
     1
 10
1503923.829999999
 20
4346241.689999998
 11
1503924.509999997
 21
4346241.307999998
 72
     1
 10
1503924.509999997
 20
4346241.307999998
 11
1503925.779999998
 21
4346240.581999999
 72
     1
 10
1503925.779999998
 20
4346240.581999999
 11
1503930.007999999
 21
4346238.182999998
 72
     1
 10
1503930.007999999
 20
4346238.182999998
 11
1503931.277999998
 21
4346237.457999999
 72
     1
 10
1503931.277999998
 20
4346237.457999999
 11
1503933.878999998
 21
4346235.965999998
 72
     1
 10
1503933.878999998
 20
4346235.965999998
 11
1503935.148999999
 21
4346235.239999998
 72
     1
 10
1503935.148999999
 20
4346235.239999998
 11
1503937.509999998
 21
4346233.879999997
 72
     1
 10
1503937.509999998
 20
4346233.879999997
 11
1503940.009999998
 21
4346232.449999997
 72
     1
 10
1503940.009999998
 20
4346232.449999997
 11
1503941.279999998
 21
4346231.724999998
 72
     1
 10
1503941.279999998
 20
4346231.724999998
 11
1503950.142999999
 21
4346226.676999997
 72
     1
 10
1503950.142999999
 20
4346226.676999997
 11
1503951.412999998
 21
4346225.950999998
 72
     1
 10
1503951.412999998
 20
4346225.950999998
 11
1503955.226999998
 21
4346223.760999998
 72
     1
 10
1503955.226999998
 20
4346223.760999998
 11
1503956.496999998
 21
4346223.035999997
 72
     1
 10
1503956.496999998
 20
4346223.035999997
 11
1503957.970999998
 21
4346222.184999996
 72
     1
 10
1503957.970999998
 20
4346222.184999996
 11
1503959.240999998
 21
4346221.458999997
 72
     1
 10
1503959.240999998
 20
4346221.458999997
 11
1503960.588999999
 21
4346220.698999998
 72
     1
 10
1503960.588999999
 20
4346220.698999998
 11
1503961.929999998
 21
4346219.934999997
 72
     1
 10
1503961.929999998
 20
4346219.934999997
 11
1503964.719999999
 21
4346218.339999998
 72
     1
 10
1503964.719999999
 20
4346218.339999998
 11
1503965.209999998
 21
4346218.769999997
 72
     1
 10
1503965.209999998
 20
4346218.769999997
 11
1503966.359999998
 21
4346219.799999998
 72
     1
 10
1503966.359999998
 20
4346219.799999998
 11
1503970.999999999
 21
4346214.799999999
 72
     1
 10
1503970.999999999
 20
4346214.799999999
 11
1503971.779999998
 21
4346215.609999998
 72
     1
 10
1503971.779999998
 20
4346215.609999998
 11
1503974.696999998
 21
4346212.392999998
 72
     1
 10
1503974.696999998
 20
4346212.392999998
 11
1503975.169999998
 21
4346212.819999997
 72
     1
 10
1503975.169999998
 20
4346212.819999997
 11
1503977.889999998
 21
4346209.739999999
 72
     1
 10
1503977.889999998
 20
4346209.739999999
 11
1503983.759999998
 21
4346203.069999998
 72
     1
 10
1503983.759999998
 20
4346203.069999998
 11
1503986.729999998
 21
4346199.709999997
 72
     1
 10
1503986.729999998
 20
4346199.709999997
 11
1503988.299999998
 21
4346197.909999998
 72
     1
 10
1503988.299999998
 20
4346197.909999998
 11
1503989.429999998
 21
4346198.839999998
 72
     1
 10
1503989.429999998
 20
4346198.839999998
 11
1503997.229999999
 21
4346189.969999996
 72
     1
 10
1503997.229999999
 20
4346189.969999996
 11
1503997.929999999
 21
4346189.169999998
 72
     1
 10
1503997.929999999
 20
4346189.169999998
 11
1503998.509999999
 21
4346189.699999997
 72
     1
 10
1503998.509999999
 20
4346189.699999997
 11
1503999.999999998
 21
4346191.055999998
 72
     1
 10
1503999.999999998
 20
4346191.055999998
 11
1504001.649999998
 21
4346192.559999997
 72
     1
 10
1504001.649999998
 20
4346192.559999997
 11
1504003.909999998
 21
4346189.879999999
 72
     1
 10
1504003.909999998
 20
4346189.879999999
 11
1504005.209999998
 21
4346190.969999997
 72
     1
 10
1504005.209999998
 20
4346190.969999997
 11
1504007.219999998
 21
4346188.709999997
 72
     1
 10
1504007.219999998
 20
4346188.709999997
 11
1504004.609999999
 21
4346186.399999998
 72
     1
 10
1504004.609999999
 20
4346186.399999998
 11
1504003.129999999
 21
4346188.019999997
 72
     1
 10
1504003.129999999
 20
4346188.019999997
 11
1504001.399999999
 21
4346186.449999997
 72
     1
 10
1504001.399999999
 20
4346186.449999997
 11
1504002.559999999
 21
4346185.149999999
 72
     1
 10
1504002.559999999
 20
4346185.149999999
 11
1504000.309999999
 21
4346183.049999999
 72
     1
 10
1504000.309999999
 20
4346183.049999999
 11
1504001.769999998
 21
4346181.179999998
 72
     1
 10
1504001.769999998
 20
4346181.179999998
 11
1504004.219999999
 21
4346183.289999997
 72
     1
 10
1504004.219999999
 20
4346183.289999997
 11
1504006.959999999
 21
4346180.209999997
 72
     1
 10
1504006.959999999
 20
4346180.209999997
 11
1504016.939999998
 21
4346188.609999999
 72
     1
 10
1504016.939999998
 20
4346188.609999999
 11
1504009.289999998
 21
4346197.719999997
 72
     1
 10
1504009.289999998
 20
4346197.719999997
 11
1504006.769999998
 21
4346195.469999996
 72
     1
 10
1504006.769999998
 20
4346195.469999996
 11
1504005.459999998
 21
4346196.009999998
 72
     1
 10
1504005.459999998
 20
4346196.009999998
 11
1504004.719999998
 21
4346197.279999997
 72
     1
 10
1504004.719999998
 20
4346197.279999997
 11
1504005.939999999
 21
4346198.499999998
 72
     1
 10
1504005.939999999
 20
4346198.499999998
 11
1504003.449999999
 21
4346201.139999998
 72
     1
 10
1504003.449999999
 20
4346201.139999998
 11
1504002.359999998
 21
4346200.029999998
 72
     1
 10
1504002.359999998
 20
4346200.029999998
 11
1503999.999999998
 21
4346202.644999998
 97
        1
330
7B
 75
     0
 76
     1
 52
-29.99999999976024
 41
1.999999999999999
 77
     0
 78
     1
 53
15.00000000023976
 43
-1971369.552002519
 44
1334425.430685229
 45
-0.0647047612766407
 46
0.2414814565719963
 79
     0
 98
        0
  0
HATCH
  5
238
330
2
100
AcDbEntity
  8
0
  6
Continuous
 62
    23
370
    13
100
AcDbHatch
 10
0.0
 20
0.0
 30
0.0
210
0.0
220
0.0
230
1.0
  2
SOLID
 70
     1
 71
     1
 91
        1
 92
        1
 93
       28
 72
     1
 10
1503849.659999997
 20
4346541.929999998
 11
1503867.609999997
 21
4346527.029999997
 72
     1
 10
1503867.609999997
 20
4346527.029999997
 11
1503869.096999998
 21
4346528.756999997
 72
     1
 10
1503869.096999998
 20
4346528.756999997
 11
1503874.166999996
 21
4346534.871999998
 72
     1
 10
1503874.166999996
 20
4346534.871999998
 11
1503875.619999998
 21
4346536.669999998
 72
     1
 10
1503875.619999998
 20
4346536.669999998
 11
1503870.619999998
 21
4346540.819999998
 72
     1
 10
1503870.619999998
 20
4346540.819999998
 11
1503873.187999998
 21
4346543.971999997
 72
     1
 10
1503873.187999998
 20
4346543.971999997
 11
1503875.451999997
 21
4346546.697999997
 72
     1
 10
1503875.451999997
 20
4346546.697999997
 11
1503878.489999997
 21
4346550.299999996
 72
     1
 10
1503878.489999997
 20
4346550.299999996
 11
1503897.419999997
 21
4346534.599999996
 72
     1
 10
1503897.419999997
 20
4346534.599999996
 11
1503894.971999997
 21
4346531.675999998
 72
     1
 10
1503894.971999997
 20
4346531.675999998
 11
1503891.895999998
 21
4346527.966999998
 72
     1
 10
1503891.895999998
 20
4346527.966999998
 11
1503889.689999997
 21
4346525.279999998
 72
     1
 10
1503889.689999997
 20
4346525.279999998
 11
1503884.849999997
 21
4346529.289999999
 72
     1
 10
1503884.849999997
 20
4346529.289999999
 11
1503877.039999997
 21
4346519.859999995
 72
     1
 10
1503877.039999997
 20
4346519.859999995
 11
1503895.459999997
 21
4346504.583999997
 72
     1
 10
1503895.459999997
 20
4346504.583999997
 11
1503885.379999997
 21
4346492.419999996
 72
     1
 10
1503885.379999997
 20
4346492.419999996
 11
1503867.179999997
 21
4346507.239999998
 72
     1
 10
1503867.179999997
 20
4346507.239999998
 11
1503859.359999997
 21
4346497.799999997
 72
     1
 10
1503859.359999997
 20
4346497.799999997
 11
1503864.349999997
 21
4346493.659999999
 72
     1
 10
1503864.349999997
 20
4346493.659999999
 11
1503856.629999997
 21
4346484.339999997
 72
     1
 10
1503856.629999997
 20
4346484.339999997
 11
1503837.509999997
 21
4346500.189999997
 72
     1
 10
1503837.509999997
 20
4346500.189999997
 11
1503845.249999997
 21
4346509.529999997
 72
     1
 10
1503845.249999997
 20
4346509.529999997
 11
1503848.326999998
 21
4346506.971999997
 72
     1
 10
1503848.326999998
 20
4346506.971999997
 11
1503850.089999997
 21
4346505.509999998
 72
     1
 10
1503850.089999997
 20
4346505.509999998
 11
1503852.632999998
 21
4346508.574999997
 72
     1
 10
1503852.632999998
 20
4346508.574999997
 11
1503857.829999997
 21
4346514.839999998
 72
     1
 10
1503857.829999997
 20
4346514.839999998
 11
1503839.669999997
 21
4346529.619999997
 72
     1
 10
1503839.669999997
 20
4346529.619999997
 11
1503849.659999997
 21
4346541.929999998
 97
        1
330
7C
 75
     0
 76
     1
 98
        0
450
        0
451
        0
460
0.0
461
0.0
452
        0
462
0.0
453
        0
470

  0
ENDSEC
  0
SECTION
  2
OBJECTS
  0
DICTIONARY
  5
B
330
0
100
AcDbDictionary
281
     1
  3
ACAD_CIP_PREVIOUS_PRODUCT_INFO
350
25A
  3
ACAD_COLOR
350
43
  3
ACAD_DETAILVIEWSTYLE
350
254
  3
ACAD_GROUP
350
30
  3
ACAD_LAYOUT
350
12
  3
ACAD_MATERIAL
350
E
  3
ACAD_MLEADERSTYLE
350
46
  3
ACAD_MLINESTYLE
350
31
  3
ACAD_PLOTSETTINGS
350
32
  3
ACAD_PLOTSTYLENAME
350
A
  3
ACAD_SCALELIST
350
44
  3
ACAD_SECTIONVIEWSTYLE
350
252
  3
ACAD_TABLESTYLE
350
45
  3
ACAD_VISUALSTYLE
350
28
  3
ACDB_RECOMPOSE_DATA
350
25C
  3
AcDbVariableDictionary
350
47
1001
ADE
1000
ADE02C004
1000
[Query]
1000
CaseSensitiveMatch=0
1000
SaveCurrQueryInSession=1
1000
MkSelSetWithQryObj=0
1000
ShowBlockAsInsPt=0
1000
CreateAssociativeHatchObjects=0
1000
ReferenceBoundaryForAreaLocation=1
1000
ShowImageAsBoundary=1
1000
DefaultJoinOperator=2
1000
ColorForAdd=red
1000
ColorForRemove=red
1000
BlockLocnForQuery=1
1000
TextLocnForQuery=1
1000
IncludeAllObjectsInGroups=0
1000
AlwaysUseLibraryDefinitions=0
1000
PreviewDefinitionsFrom=2
1000
[Save Back]
1000
RedefineBlockDefinitions=1
1000
RedefineLayerDefinitions=1
1000
RedefineTextStyleDefinitions=1
1000
RemoveUnusedGroups=1
1000
EraseSavedBackObjects=1
1000
RemoveLockAfterSave=1
1000
CreateHistoryFileOfChanges=0
1000
CreateBackupFileOfSourceDwg=1
1000
DontAddObjectsToSaveSet=0
1000
MarkObjectsForEditingWithoutPrompting=0
1000
FdoDontAddObjsToSvSet=0
1000
FdoEditWithoutPrompt=1
1000
FdoRemUnusedGrps=1
1000
FdoEraseSvdBkObjs=1
1000
FdoRemoveLockOnSave=1
1000
FdoTesselationMaxPointsDistance=0
1000
FdoTesselationMaxCurvesDistance=0
1000
[Coordinate Transformation]
1000
RestoreLastActiveDwgsOnStartup=1
1000
ActivateDwgsOnAttach=1
1000
AdjustSizesAndScalesForChangesInUnits=1
1000
AdjustRotationsForMapDistortions=1
1000
AdjustSizesAndScalesForMapDistortions=1
1000
AdjustElevations=1
1000
AdjustZeroRotationObjects=1
1000
ReconnectDbOnWSOpen=1
1000
NoOfSQLConditionsInHistory=10
  0
DICTIONARY
  5
2A
330
25
100
AcDbDictionary
280
     1
281
     1
  0
DICTIONARY
  5
1A
330
19
100
AcDbDictionary
280
     1
281
     1
  3
ACAD_LAYERFILTERS
360
1B
  3
ACAD_LAYERSTATES
360
1C
  0
DICTIONARY
  5
7
330
6
100
AcDbDictionary
280
     1
281
     1
  3
ADSK_XREC_LAYER_RECONCILED
360
8
  0
DICTIONARY
  5
21B
330
21A
100
AcDbDictionary
280
     1
281
     1
  3
ADSK_XREC_LAYER_RECONCILED
360
21C
  0
DICTIONARY
  5
155
330
154
100
AcDbDictionary
280
     1
281
     1
  3
ADSK_XREC_LAYER_RECONCILED
360
156
  0
DICTIONARY
  5
1F0
330
1EF
100
AcDbDictionary
280
     1
281
     1
  3
ADSK_XREC_LAYER_RECONCILED
360
1F1
  0
DICTIONARY
  5
3
330
2
100
AcDbDictionary
280
     1
281
     1
  3
ACAD_SORTENTS
360
239
  0
XRECORD
  5
25A
102
{ACAD_REACTORS
330
B
102
}
330
B
100
AcDbXrecord
280
     1
300
ACDLT
300
2022
300

  0
DICTIONARY
  5
43
102
{ACAD_REACTORS
330
B
102
}
330
B
100
AcDbDictionary
281
     1
  0
DICTIONARY
  5
254
102
{ACAD_REACTORS
330
B
102
}
330
B
100
AcDbDictionary
281
     1
  3
Imperial24
350
255
  0
DICTIONARY
  5
30
102
{ACAD_REACTORS
330
B
102
}
330
B
100
AcDbDictionary
281
     1
  0
DICTIONARY
  5
12
102
{ACAD_REACTORS
330
B
102
}
330
B
100
AcDbDictionary
281
     1
  3
Layout1
350
18
  3
Model
350
11
  0
DICTIONARY
  5
E
102
{ACAD_REACTORS
330
B
102
}
330
B
100
AcDbDictionary
281
     1
  3
ByBlock
350
3B
  3
ByLayer
350
33
  3
Global
350
D
  0
DICTIONARY
  5
46
102
{ACAD_REACTORS
330
B
102
}
330
B
100
AcDbDictionary
281
     1
  3
Standard
350
251
  0
DICTIONARY
  5
31
102
{ACAD_REACTORS
330
B
102
}
330
B
100
AcDbDictionary
281
     1
  3
Standard
350
52
  0
DICTIONARY
  5
32
102
{ACAD_REACTORS
330
B
102
}
330
B
100
AcDbDictionary
281
     1
  0
ACDBDICTIONARYWDFLT
  5
A
102
{ACAD_REACTORS
330
B
102
}
330
B
100
AcDbDictionary
281
     1
  3
Normal
350
9
100
AcDbDictionaryWithDefault
340
9
  0
DICTIONARY
  5
44
102
{ACAD_REACTORS
330
B
102
}
330
B
100
AcDbDictionary
281
     1
  3
A0
350
57
  3
A1
350
58
  3
A2
350
59
  3
A3
350
5A
  3
A4
350
5B
  3
A5
350
5C
  3
A6
350
5D
  3
A7
350
5E
  3
A8
350
5F
  3
A9
350
60
  3
B0
350
61
  3
B1
350
62
  3
B2
350
63
  3
B3
350
64
  3
B4
350
65
  3
B5
350
66
  3
B6
350
67
  0
DICTIONARY
  5
252
102
{ACAD_REACTORS
330
B
102
}
330
B
100
AcDbDictionary
281
     1
  3
Imperial24
350
253
  0
DICTIONARY
  5
45
102
{ACAD_REACTORS
330
B
102
}
330
B
100
AcDbDictionary
281
     1
  3
Standard
350
53
  0
DICTIONARY
  5
28
102
{ACAD_REACTORS
330
B
102
}
330
B
100
AcDbDictionary
281
     1
  3
2dWireframe
350
27
  3
Basic
350
240
  3
Brighten
350
244
  3
ColorChange
350
248
  3
Conceptual
350
242
  3
Dim
350
243
  3
EdgeColorOff
350
250
  3
Facepattern
350
247
  3
Flat
350
23C
  3
FlatWithEdges
350
23D
  3
Gouraud
350
23E
  3
GouraudWithEdges
350
23F
  3
Hidden
350
241
  3
JitterOff
350
24E
  3
Linepattern
350
246
  3
OverhangOff
350
24F
  3
Realistic
350
55
  3
Shaded
350
24D
  3
Shaded with edges
350
24C
  3
Shades of Gray
350
249
  3
Sketchy
350
24A
  3
Thicken
350
245
  3
Wireframe
350
56
  3
X-Ray
350
24B
  0
XRECORD
  5
25C
102
{ACAD_REACTORS
330
B
102
}
330
B
100
AcDbXrecord
280
     1
 90
        1
330
53
  0
DICTIONARY
  5
47
102
{ACAD_REACTORS
330
B
102
}
330
B
100
AcDbDictionary
281
     1
  3
CANNOSCALE
350
48
  3
CMLEADERSTYLE
350
49
  3
CTABLESTYLE
350
4A
  3
CVIEWDETAILSTYLE
350
4B
  3
CVIEWSECTIONSTYLE
350
4C
  3
LAYEREVAL
350
4D
  3
LAYERNOTIFY
350
4E
  3
LIGHTINGUNITS
350
4F
  3
MSLTSCALE
350
50
  0
DICTIONARY
  5
1B
102
{ACAD_REACTORS
330
1A
102
}
330
1A
100
AcDbDictionary
281
     1
  0
DICTIONARY
  5
1C
102
{ACAD_REACTORS
330
1A
102
}
330
1A
100
AcDbDictionary
281
     1
  0
XRECORD
  5
8
102
{ACAD_REACTORS
330
7
102
}
330
7
100
AcDbXrecord
280
     1
290
     1
  0
XRECORD
  5
21C
102
{ACAD_REACTORS
330
21B
102
}
330
21B
100
AcDbXrecord
280
     1
290
     1
  0
XRECORD
  5
156
102
{ACAD_REACTORS
330
155
102
}
330
155
100
AcDbXrecord
280
     1
290
     1
  0
XRECORD
  5
1F1
102
{ACAD_REACTORS
330
1F0
102
}
330
1F0
100
AcDbXrecord
280
     1
290
     1
  0
SORTENTSTABLE
  5
239
102
{ACAD_REACTORS
330
3
102
}
330
3
100
AcDbSortentsTable
330
2
  0
ACDBDETAILVIEWSTYLE
  5
255
102
{ACAD_REACTORS
330
254
102
}
330
254
100
AcDbModelDocViewStyle
 70
     0
  3
Imperial24
290
     1
300
Imperial24
 90
        0
100
AcDbDetailViewStyle
 70
     0
 71
     0
 90
        3
 71
     1
340
1E
 62
   256
 40
0.24
340
0
 62
   256
 40
0.24
300

 40
0.36
280
     3
 71
     2
340
F
 90
       25
 62
   256
 71
     3
340
1E
 62
   256
 40
0.24
 90
        1
 40
0.75
 90
        1
300
%<\AcVar ViewType \f "%tc1">% %<\AcVar ViewDetailId>%\PSCALA %<\AcVar ViewScale \f "%sn">%
 71
     4
340
F
 90
       25
 62
   256
340
F
 90
       25
 62
   256
280
     0
  0
LAYOUT
  5
18
102
{ACAD_REACTORS
330
12
102
}
330
12
100
AcDbPlotSettings
  1

  2

  4

  6

 40
0.0
 41
0.0
 42
0.0
 43
0.0
 44
0.0
 45
0.0
 46
0.0
 47
0.0
 48
0.0
 49
0.0
140
0.0
141
0.0
142
1.0
143
1.0
 70
   688
 72
     0
 73
     0
 74
     5
  7

 75
    16
147
1.0
 76
     0
 77
     2
 78
   300
148
0.0
149
0.0
100
AcDbLayout
  1
Layout1
 70
     0
 71
     1
 10
0.0
 20
0.0
 11
12.0
 21
9.0
 12
0.0
 22
0.0
 32
0.0
 14
1.000000000000000E+20
 24
1.000000000000000E+20
 34
1.000000000000000E+20
 15
-1.000000000000000E+20
 25
-1.000000000000000E+20
 35
-1.000000000000000E+20
146
0.0
 13
0.0
 23
0.0
 33
0.0
 16
1.0
 26
0.0
 36
0.0
 17
0.0
 27
1.0
 37
0.0
 76
     0
330
15
  0
LAYOUT
  5
11
102
{ACAD_XDICTIONARY
360
13
102
}
102
{ACAD_REACTORS
330
12
102
}
330
12
100
AcDbPlotSettings
  1

  2
HP DesignJet 500 42+HPGL2 Card
  4
User268
  6

 40
4.995333194732666
 41
16.97565841674804
 42
4.995330810546875
 43
16.97567749023437
 44
209.9733276367187
 45
296.9259948730469
 46
0.0
 47
0.0
 48
0.0
 49
0.0
140
0.0
141
0.0
142
1.0
143
1.0
 70
 11952
 72
     0
 73
     1
 74
     0
  7

 75
     0
147
1.0
 76
     0
 77
     2
 78
   300
148
-38134238.78557951
149
-110308492.8359688
100
AcDbLayout
  1
Model
 70
     1
 71
     0
 10
0.0
 20
0.0
 11
12.0
 21
9.0
 12
0.0
 22
0.0
 32
0.0
 14
0.0
 24
0.0
 34
0.0
 15
0.0
 25
0.0
 35
0.0
146
0.0
 13
0.0
 23
0.0
 33
0.0
 16
1.0
 26
0.0
 36
0.0
 17
0.0
 27
1.0
 37
0.0
 76
     0
330
2
331
26
  0
MATERIAL
  5
3B
102
{ACAD_XDICTIONARY
360
3C
102
}
102
{ACAD_REACTORS
330
E
102
}
330
E
100
AcDbMaterial
  1
ByBlock
 72
     0
 43
0.0208333333333333
 43
0.0
 43
0.0
 43
0.0
 43
0.0
 43
0.0208333333333333
 43
0.0
 43
0.0
 43
0.0
 43
0.0
 43
1.0
 43
0.0
 43
0.0
 43
0.0
 43
0.0
 43
1.0
 77
     0
 47
0.0208333333333333
 47
0.0
 47
0.0
 47
0.0
 47
0.0
 47
0.0208333333333333
 47
0.0
 47
0.0
 47
0.0
 47
0.0
 47
1.0
 47
0.0
 47
0.0
 47
0.0
 47
0.0
 47
1.0
171
     0
 49
0.0208333333333333
 49
0.0
 49
0.0
 49
0.0
 49
0.0
 49
0.0208333333333333
 49
0.0
 49
0.0
 49
0.0
 49
0.0
 49
1.0
 49
0.0
 49
0.0
 49
0.0
 49
0.0
 49
1.0
175
     0
142
0.0208333333333333
142
0.0
142
0.0
142
0.0
142
0.0
142
0.0208333333333333
142
0.0
142
0.0
142
0.0
142
0.0
142
1.0
142
0.0
142
0.0
142
0.0
142
0.0
142
1.0
179
     0
144
0.0208333333333333
144
0.0
144
0.0
144
0.0
144
0.0
144
0.0208333333333333
144
0.0
144
0.0
144
0.0
144
0.0
144
1.0
144
0.0
144
0.0
144
0.0
144
0.0
144
1.0
147
0.0208333333333333
147
0.0
147
0.0
147
0.0
147
0.0
147
0.0208333333333333
147
0.0
147
0.0
147
0.0
147
0.0
147
1.0
147
0.0
147
0.0
147
0.0
147
0.0
147
1.0
  0
MATERIAL
  5
33
102
{ACAD_XDICTIONARY
360
34
102
}
102
{ACAD_REACTORS
330
E
102
}
330
E
100
AcDbMaterial
  1
ByLayer
 72
     0
 43
0.0208333333333333
 43
0.0
 43
0.0
 43
0.0
 43
0.0
 43
0.0208333333333333
 43
0.0
 43
0.0
 43
0.0
 43
0.0
 43
1.0
 43
0.0
 43
0.0
 43
0.0
 43
0.0
 43
1.0
 77
     0
 47
0.0208333333333333
 47
0.0
 47
0.0
 47
0.0
 47
0.0
 47
0.0208333333333333
 47
0.0
 47
0.0
 47
0.0
 47
0.0
 47
1.0
 47
0.0
 47
0.0
 47
0.0
 47
0.0
 47
1.0
171
     0
 49
0.0208333333333333
 49
0.0
 49
0.0
 49
0.0
 49
0.0
 49
0.0208333333333333
 49
0.0
 49
0.0
 49
0.0
 49
0.0
 49
1.0
 49
0.0
 49
0.0
 49
0.0
 49
0.0
 49
1.0
175
     0
142
0.0208333333333333
142
0.0
142
0.0
142
0.0
142
0.0
142
0.0208333333333333
142
0.0
142
0.0
142
0.0
142
0.0
142
1.0
142
0.0
142
0.0
142
0.0
142
0.0
142
1.0
179
     0
144
0.0208333333333333
144
0.0
144
0.0
144
0.0
144
0.0
144
0.0208333333333333
144
0.0
144
0.0
144
0.0
144
0.0
144
1.0
144
0.0
144
0.0
144
0.0
144
0.0
144
1.0
147
0.0208333333333333
147
0.0
147
0.0
147
0.0
147
0.0
147
0.0208333333333333
147
0.0
147
0.0
147
0.0
147
0.0
147
1.0
147
0.0
147
0.0
147
0.0
147
0.0
147
1.0
  0
MATERIAL
  5
D
102
{ACAD_REACTORS
330
E
102
}
330
E
100
AcDbMaterial
  1
Global
 73
     1
 78
     1
172
     1
176
     1
270
     1
274
     1
 94
       63
  0
MLEADERSTYLE
  5
251
102
{ACAD_REACTORS
330
46
102
}
330
46
100
AcDbMLeaderStyle
179
     2
170
     2
171
     1
172
     0
 90
        2
 40
0.0
 41
0.0
173
     1
 91
-1056964608
340
21
 92
       -2
290
     1
 42
0.09
291
     1
 43
0.36
  3
Standard
 44
0.18
300

342
1E
174
     1
178
     6
175
     1
176
     0
 93
-1056964608
 45
0.18
292
     0
297
     0
 46
0.18
 94
-1056964608
 47
1.0
 49
1.0
140
1.0
293
     1
141
0.0
294
     1
177
     0
142
1.0
295
     1
296
     0
143
0.125
271
     0
272
     9
273
     9
298
     1
  0
MLINESTYLE
  5
52
102
{ACAD_REACTORS
330
31
102
}
330
31
100
AcDbMlineStyle
  2
STANDARD
 70
     0
  3

 62
   256
 51
90.0
 52
90.0
 71
     2
 49
0.5
 62
   256
  6
BYLAYER
 49
-0.5
 62
   256
  6
BYLAYER
  0
ACDBPLACEHOLDER
  5
9
102
{ACAD_REACTORS
330
A
102
}
330
A
  0
SCALE
  5
57
102
{ACAD_REACTORS
330
44
102
}
330
44
100
AcDbScale
 70
     0
300
1:1
140
1.0
141
1.0
290
     1
  0
SCALE
  5
58
102
{ACAD_REACTORS
330
44
102
}
330
44
100
AcDbScale
 70
     0
300
1/128" = 1'-0"
140
0.0078125
141
12.0
290
     0
  0
SCALE
  5
59
102
{ACAD_REACTORS
330
44
102
}
330
44
100
AcDbScale
 70
     0
300
1/64" = 1'-0"
140
0.015625
141
12.0
290
     0
  0
SCALE
  5
5A
102
{ACAD_REACTORS
330
44
102
}
330
44
100
AcDbScale
 70
     0
300
1/32" = 1'-0"
140
0.03125
141
12.0
290
     0
  0
SCALE
  5
5B
102
{ACAD_REACTORS
330
44
102
}
330
44
100
AcDbScale
 70
     0
300
1/16" = 1'-0"
140
0.0625
141
12.0
290
     0
  0
SCALE
  5
5C
102
{ACAD_REACTORS
330
44
102
}
330
44
100
AcDbScale
 70
     0
300
3/32" = 1'-0"
140
0.09375
141
12.0
290
     0
  0
SCALE
  5
5D
102
{ACAD_REACTORS
330
44
102
}
330
44
100
AcDbScale
 70
     0
300
1/8" = 1'-0"
140
0.125
141
12.0
290
     0
  0
SCALE
  5
5E
102
{ACAD_REACTORS
330
44
102
}
330
44
100
AcDbScale
 70
     0
300
3/16" = 1'-0"
140
0.1875
141
12.0
290
     0
  0
SCALE
  5
5F
102
{ACAD_REACTORS
330
44
102
}
330
44
100
AcDbScale
 70
     0
300
1/4" = 1'-0"
140
0.25
141
12.0
290
     0
  0
SCALE
  5
60
102
{ACAD_REACTORS
330
44
102
}
330
44
100
AcDbScale
 70
     0
300
3/8" = 1'-0"
140
0.375
141
12.0
290
     0
  0
SCALE
  5
61
102
{ACAD_REACTORS
330
44
102
}
330
44
100
AcDbScale
 70
     0
300
1/2" = 1'-0"
140
0.5
141
12.0
290
     0
  0
SCALE
  5
62
102
{ACAD_REACTORS
330
44
102
}
330
44
100
AcDbScale
 70
     0
300
3/4" = 1'-0"
140
0.75
141
12.0
290
     0
  0
SCALE
  5
63
102
{ACAD_REACTORS
330
44
102
}
330
44
100
AcDbScale
 70
     0
300
1" = 1'-0"
140
1.0
141
12.0
290
     0
  0
SCALE
  5
64
102
{ACAD_REACTORS
330
44
102
}
330
44
100
AcDbScale
 70
     0
300
1-1/2" = 1'-0"
140
1.5
141
12.0
290
     0
  0
SCALE
  5
65
102
{ACAD_REACTORS
330
44
102
}
330
44
100
AcDbScale
 70
     0
300
3" = 1'-0"
140
3.0
141
12.0
290
     0
  0
SCALE
  5
66
102
{ACAD_REACTORS
330
44
102
}
330
44
100
AcDbScale
 70
     0
300
6" = 1'-0"
140
6.0
141
12.0
290
     0
  0
SCALE
  5
67
102
{ACAD_REACTORS
330
44
102
}
330
44
100
AcDbScale
 70
     0
300
1'-0" = 1'-0"
140
12.0
141
12.0
290
     0
  0
ACDBSECTIONVIEWSTYLE
  5
253
102
{ACAD_REACTORS
330
252
102
}
330
252
100
AcDbModelDocViewStyle
 70
     0
  3
Imperial24
290
     1
300
Imperial24
 90
        0
100
AcDbSectionViewStyle
 70
     0
 71
     0
 90
       78
 71
     1
340
1E
 62
   256
 40
0.24
340
0
340
0
 62
   256
 40
0.24
300
I, O, Q, S, X, Z
 40
0.48
 90
        3
 40
0.18
 90
        1
 71
     2
340
F
 90
       25
 62
   256
340
F
 90
       50
 62
   256
 40
0.24
 40
0.0
 40
0.24
 71
     3
340
1E
 62
   256
 40
0.24
 90
        1
 40
0.75
 90
        1
300
%<\AcVar ViewType \f "%tc1">% %<\AcVar ViewSectionStartId>%-%<\AcVar ViewSectionEndId>%\PSCALA %<\AcVar ViewScale \f "%sn">%
 71
     4
 62
   256
 62
   257
300
ANSI31
 40
1.0
 90
        0
290
     0
290
     0
 90
        6
 40
0.0
 40
1.570796326794896
 40
0.2617993877991494
 40
1.308996938995747
 40
-0.2617993877991494
 40
1.832595714594046
  0
TABLESTYLE
  5
53
102
{ACAD_XDICTIONARY
360
54
102
}
102
{ACAD_REACTORS
330
45
102
}
330
45
100
AcDbTableStyle
280
     0
  3
Standard
 70
     0
 71
     0
 40
0.06
 41
0.06
280
     0
281
     0
  7
Standard
140
0.18
170
     2
 62
     0
 63
     7
283
     0
 90
      512
 91
        0
  1

274
    -2
284
     1
 64
     0
275
    -2
285
     1
 65
     0
276
    -2
286
     1
 66
     0
277
    -2
287
     1
 67
     0
278
    -2
288
     1
 68
     0
279
    -2
289
     1
 69
     0
  7
Standard
140
0.25
170
     5
 62
     0
 63
     7
283
     0
 90
      512
 91
        0
  1

274
    -2
284
     1
 64
     0
275
    -2
285
     1
 65
     0
276
    -2
286
     1
 66
     0
277
    -2
287
     1
 67
     0
278
    -2
288
     1
 68
     0
279
    -2
289
     1
 69
     0
  7
Standard
140
0.18
170
     5
 62
     0
 63
     7
283
     0
 90
      512
 91
        0
  1

274
    -2
284
     1
 64
     0
275
    -2
285
     1
 65
     0
276
    -2
286
     1
 66
     0
277
    -2
287
     1
 67
     0
278
    -2
288
     1
 68
     0
279
    -2
289
     1
 69
     0
  0
VISUALSTYLE
  5
27
102
{ACAD_REACTORS
330
28
102
}
330
28
100
AcDbVisualStyle
  2
2dWireframe
 70
     4
177
     3
291
     0
 70
    58
 90
        0
176
     1
 90
        2
176
     1
 90
        0
176
     1
 90
        0
176
     1
 40
0.6
176
     1
 40
30.0
176
     1
 62
     7
420
 16777215
176
     1
 90
        1
176
     1
 90
        4
176
     1
 62
     7
176
     1
 62
   257
176
     1
 90
        1
176
     1
 90
        1
176
     1
 40
1.0
176
     1
 90
        0
176
     1
 62
   257
176
     1
 40
1.0
176
     1
 90
        1
176
     1
 90
        6
176
     1
 90
        2
176
     1
 62
     7
176
     1
 90
        5
176
     1
 90
        0
176
     1
 90
        0
176
     1
290
     0
176
     1
 90
        1
176
     1
 40
0.0
176
     1
 90
        0
176
     1
290
     1
176
     1
290
     1
176
     1
290
     0
176
     1
290
     0
176
     1
290
     0
176
     1
290
     0
176
     1
290
     0
176
     1
290
     0
176
     1
290
     0
176
     1
 90
       50
176
     1
 40
0.0
176
     1
 40
1.0
176
     1
 90
        0
176
     1
 62
    18
420
        0
176
     1
 90
       50
176
     1
 90
        3
176
     1
 62
     5
420
      255
176
     1
290
     0
176
     1
 90
       50
176
     1
 90
       50
176
     1
 90
       50
176
     1
290
     0
176
     1
 90
       50
176
     1
 62
   256
176
     0
 40
1.0
176
     0
 90
        2
176
     1
  1
strokes_ogs.tif
176
     1
290
     0
176
     1
 40
1.0
176
     1
 40
1.0
176
     1
  0
VISUALSTYLE
  5
240
102
{ACAD_REACTORS
330
28
102
}
330
28
100
AcDbVisualStyle
  2
Basic
 70
     7
177
     3
291
     1
 70
    58
 90
        1
176
     1
 90
        0
176
     1
 90
        1
176
     1
 90
        0
176
     1
 40
0.6
176
     1
 40
30.0
176
     1
 62
     7
420
 16777215
176
     1
 90
        0
176
     1
 90
        4
176
     1
 62
     7
176
     1
 62
   257
176
     1
 90
        1
176
     1
 90
        1
176
     1
 40
1.0
176
     1
 90
        8
176
     1
 62
     7
176
     1
 40
1.0
176
     1
 90
        1
176
     1
 90
        6
176
     1
 90
        2
176
     1
 62
     7
176
     1
 90
        5
176
     1
 90
        0
176
     1
 90
        0
176
     1
290
     0
176
     1
 90
        1
176
     1
 40
0.0
176
     1
 90
        0
176
     1
290
     0
176
     1
290
     1
176
     1
290
     1
176
     1
290
     0
176
     1
290
     0
176
     1
290
     0
176
     1
290
     0
176
     1
290
     0
176
     1
290
     0
176
     1
 90
       50
176
     1
 40
0.0
176
     1
 40
1.0
176
     1
 90
        0
176
     1
 62
    18
420
        0
176
     1
 90
       50
176
     1
 90
        3
176
     1
 62
     5
420
      255
176
     1
290
     0
176
     1
 90
       50
176
     1
 90
       50
176
     1
 90
       50
176
     1
290
     0
176
     1
 90
       50
176
     1
 62
   256
176
     0
 40
1.0
176
     0
 90
        2
176
     1
  1
strokes_ogs.tif
176
     1
290
     0
176
     1
 40
1.0
176
     1
 40
1.0
176
     1
  0
VISUALSTYLE
  5
244
102
{ACAD_REACTORS
330
28
102
}
330
28
100
AcDbVisualStyle
  2
Brighten
 70
    12
177
     3
291
     1
 70
    58
 90
        2
176
     1
 90
        2
176
     1
 90
        0
176
     1
 90
        0
176
     1
 40
0.6
176
     1
 40
30.0
176
     1
 62
     7
420
 16777215
176
     1
 90
        1
176
     1
 90
        4
176
     1
 62
     7
176
     1
 62
   257
176
     1
 90
        1
176
     1
 90
        1
176
     1
 40
1.0
176
     1
 90
        8
176
     1
 62
     7
176
     1
 40
1.0
176
     1
 90
        1
176
     1
 90
        6
176
     1
 90
        2
176
     1
 62
     7
176
     1
 90
        5
176
     1
 90
        0
176
     1
 90
        0
176
     1
290
     0
176
     1
 90
        1
176
     1
 40
50.0
176
     1
 90
        0
176
     1
290
     0
176
     1
290
     1
176
     1
290
     1
176
     1
290
     0
176
     1
290
     0
176
     1
290
     0
176
     1
290
     0
176
     1
290
     0
176
     1
290
     0
176
     1
 90
       50
176
     1
 40
0.0
176
     1
 40
1.0
176
     1
 90
        0
176
     1
 62
    18
420
        0
176
     1
 90
       50
176
     1
 90
        3
176
     1
 62
     5
420
      255
176
     1
290
     0
176
     1
 90
       50
176
     1
 90
       50
176
     1
 90
       50
176
     1
290
     0
176
     1
 90
       50
176
     1
 62
   256
176
     0
 40
1.0
176
     0
 90
        2
176
     1
  1
strokes_ogs.tif
176
     1
290
     0
176
     1
 40
1.0
176
     1
 40
1.0
176
     1
  0
VISUALSTYLE
  5
248
102
{ACAD_REACTORS
330
28
102
}
330
28
100
AcDbVisualStyle
  2
ColorChange
 70
    16
177
     3
291
     1
 70
    58
 90
        2
176
     1
 90
        2
176
     1
 90
        3
176
     1
 90
        0
176
     1
 40
0.6
176
     1
 40
30.0
176
     1
 62
     8
420
  8421504
176
     1
 90
        1
176
     1
 90
        4
176
     1
 62
     7
176
     1
 62
   257
176
     1
 90
        1
176
     1
 90
        1
176
     1
 40
1.0
176
     1
 90
        8
176
     1
 62
     8
420
  8421504
176
     1
 40
1.0
176
     1
 90
        1
176
     1
 90
        6
176
     1
 90
        2
176
     1
 62
     7
176
     1
 90
        5
176
     1
 90
        0
176
     1
 90
        0
176
     1
290
     0
176
     1
 90
        1
176
     1
 40
0.0
176
     1
 90
        0
176
     1
290
     0
176
     1
290
     1
176
     1
290
     1
176
     1
290
     0
176
     1
290
     0
176
     1
290
     0
176
     1
290
     0
176
     1
290
     0
176
     1
290
     0
176
     1
 90
       50
176
     1
 40
0.0
176
     1
 40
1.0
176
     1
 90
        0
176
     1
 62
    18
420
        0
176
     1
 90
       50
176
     1
 90
        3
176
     1
 62
     5
420
      255
176
     1
290
     0
176
     1
 90
       50
176
     1
 90
       50
176
     1
 90
       50
176
     1
290
     0
176
     1
 90
       50
176
     1
 62
   256
176
     0
 40
1.0
176
     0
 90
        2
176
     1
  1
strokes_ogs.tif
176
     1
290
     0
176
     1
 40
1.0
176
     1
 40
1.0
176
     1
  0
VISUALSTYLE
  5
242
102
{ACAD_REACTORS
330
28
102
}
330
28
100
AcDbVisualStyle
  2
Conceptual
 70
     9
177
     3
291
     0
 70
    58
 90
        3
176
     1
 90
        2
176
     1
 90
        0
176
     1
 90
        0
176
     1
 40
0.6
176
     1
 40
30.0
176
     1
 62
     7
420
 16777215
176
     1
 90
        2
176
     1
 90
        2
176
     1
 62
     7
176
     1
 62
   257
176
     1
 90
        1
176
     1
 90
        1
176
     1
 40
179.0
176
     1
 90
        8
176
     1
 62
     7
176
     1
 40
1.0
176
     1
 90
        1
176
     1
 90
        6
176
     1
 90
        2
176
     1
 62
     7
176
     1
 90
        3
176
     1
 90
        0
176
     1
 90
        0
176
     1
290
     0
176
     1
 90
        1
176
     1
 40
0.0
176
     1
 90
        0
176
     1
290
     0
176
     1
290
     1
176
     1
290
     1
176
     1
290
     0
176
     1
290
     0
176
     1
290
     0
176
     1
290
     0
176
     1
290
     0
176
     1
290
     0
176
     1
 90
       50
176
     1
 40
0.0
176
     1
 40
1.0
176
     1
 90
        0
176
     1
 62
    18
420
        0
176
     1
 90
       50
176
     1
 90
        3
176
     1
 62
     5
420
      255
176
     1
290
     0
176
     1
 90
       50
176
     1
 90
       50
176
     1
 90
       50
176
     1
290
     0
176
     1
 90
       50
176
     1
 62
   256
176
     0
 40
1.0
176
     0
 90
        2
176
     1
  1
strokes_ogs.tif
176
     1
290
     0
176
     1
 40
1.0
176
     1
 40
1.0
176
     1
  0
VISUALSTYLE
  5
243
102
{ACAD_REACTORS
330
28
102
}
330
28
100
AcDbVisualStyle
  2
Dim
 70
    11
177
     3
291
     1
 70
    58
 90
        2
176
     1
 90
        2
176
     1
 90
        0
176
     1
 90
        0
176
     1
 40
0.6
176
     1
 40
30.0
176
     1
 62
     7
420
 16777215
176
     1
 90
        1
176
     1
 90
        4
176
     1
 62
     7
176
     1
 62
   257
176
     1
 90
        1
176
     1
 90
        1
176
     1
 40
1.0
176
     1
 90
        8
176
     1
 62
     7
176
     1
 40
1.0
176
     1
 90
        1
176
     1
 90
        6
176
     1
 90
        2
176
     1
 62
     7
176
     1
 90
        5
176
     1
 90
        0
176
     1
 90
        0
176
     1
290
     0
176
     1
 90
        1
176
     1
 40
-50.0
176
     1
 90
        0
176
     1
290
     0
176
     1
290
     1
176
     1
290
     1
176
     1
290
     0
176
     1
290
     0
176
     1
290
     0
176
     1
290
     0
176
     1
290
     0
176
     1
290
     0
176
     1
 90
       50
176
     1
 40
0.0
176
     1
 40
1.0
176
     1
 90
        0
176
     1
 62
    18
420
        0
176
     1
 90
       50
176
     1
 90
        3
176
     1
 62
     5
420
      255
176
     1
290
     0
176
     1
 90
       50
176
     1
 90
       50
176
     1
 90
       50
176
     1
290
     0
176
     1
 90
       50
176
     1
 62
   256
176
     0
 40
1.0
176
     0
 90
        2
176
     1
  1
strokes_ogs.tif
176
     1
290
     0
176
     1
 40
1.0
176
     1
 40
1.0
176
     1
  0
VISUALSTYLE
  5
250
102
{ACAD_REACTORS
330
28
102
}
330
28
100
AcDbVisualStyle
  2
EdgeColorOff
 70
    22
177
     3
291
     1
 70
    58
 90
        2
176
     0
 90
        2
176
     0
 90
        0
176
     0
 90
        0
176
     0
 40
0.6
176
     0
 40
30.0
176
     0
 62
     7
420
 16777215
176
     0
 90
        1
176
     0
 90
        4
176
     0
 62
     7
176
     0
 62
   257
176
     0
 90
        1
176
     0
 90
        1
176
     0
 40
1.0
176
     0
 90
        8
176
     2
 62
     7
176
     0
 40
1.0
176
     0
 90
        1
176
     0
 90
        6
176
     0
 90
        2
176
     0
 62
     7
176
     0
 90
        5
176
     0
 90
        0
176
     0
 90
        0
176
     0
290
     0
176
     0
 90
        1
176
     0
 40
0.0
176
     0
 90
        0
176
     0
290
     0
176
     0
290
     1
176
     0
290
     1
176
     0
290
     0
176
     0
290
     0
176
     0
290
     0
176
     0
290
     0
176
     0
290
     0
176
     0
290
     0
176
     0
 90
       50
176
     0
 40
0.0
176
     0
 40
1.0
176
     0
 90
        0
176
     0
 62
    18
420
        0
176
     0
 90
       50
176
     0
 90
        3
176
     0
 62
     5
420
      255
176
     0
290
     0
176
     0
 90
       50
176
     0
 90
       50
176
     0
 90
       50
176
     0
290
     0
176
     0
 90
       50
176
     0
 62
   256
176
     0
 40
1.0
176
     0
 90
        2
176
     0
  1
strokes_ogs.tif
176
     0
290
     0
176
     0
 40
1.0
176
     0
 40
1.0
176
     0
  0
VISUALSTYLE
  5
247
102
{ACAD_REACTORS
330
28
102
}
330
28
100
AcDbVisualStyle
  2
Facepattern
 70
    15
177
     3
291
     1
 70
    58
 90
        2
176
     1
 90
        2
176
     1
 90
        0
176
     1
 90
        0
176
     1
 40
0.6
176
     1
 40
30.0
176
     1
 62
     7
420
 16777215
176
     1
 90
        1
176
     1
 90
        4
176
     1
 62
     7
176
     1
 62
   257
176
     1
 90
        1
176
     1
 90
        1
176
     1
 40
1.0
176
     1
 90
        8
176
     1
 62
     7
176
     1
 40
1.0
176
     1
 90
        1
176
     1
 90
        6
176
     1
 90
        2
176
     1
 62
     7
176
     1
 90
        5
176
     1
 90
        0
176
     1
 90
        0
176
     1
290
     0
176
     1
 90
        1
176
     1
 40
0.0
176
     1
 90
        0
176
     1
290
     0
176
     1
290
     1
176
     1
290
     1
176
     1
290
     0
176
     1
290
     0
176
     1
290
     0
176
     1
290
     0
176
     1
290
     0
176
     1
290
     0
176
     1
 90
       50
176
     1
 40
0.0
176
     1
 40
1.0
176
     1
 90
        0
176
     1
 62
    18
420
        0
176
     1
 90
       50
176
     1
 90
        3
176
     1
 62
     5
420
      255
176
     1
290
     0
176
     1
 90
       50
176
     1
 90
       50
176
     1
 90
       50
176
     1
290
     0
176
     1
 90
       50
176
     1
 62
   256
176
     0
 40
1.0
176
     0
 90
        2
176
     1
  1
strokes_ogs.tif
176
     1
290
     0
176
     1
 40
1.0
176
     1
 40
1.0
176
     1
  0
VISUALSTYLE
  5
23C
102
{ACAD_REACTORS
330
28
102
}
330
28
100
AcDbVisualStyle
  2
Flat
 70
     0
177
     3
291
     1
 70
    58
 90
        2
176
     1
 90
        1
176
     1
 90
        1
176
     1
 90
        2
176
     1
 40
0.6
176
     1
 40
30.0
176
     1
 62
     7
420
 16777215
176
     1
 90
        0
176
     1
 90
        0
176
     1
 62
     7
176
     1
 62
   257
176
     1
 90
        1
176
     1
 90
        1
176
     1
 40
1.0
176
     1
 90
        8
176
     1
 62
     7
176
     1
 40
1.0
176
     1
 90
        1
176
     1
 90
        6
176
     1
 90
        2
176
     1
 62
     7
176
     1
 90
        5
176
     1
 90
        0
176
     1
 90
        0
176
     1
290
     0
176
     1
 90
       13
176
     1
 40
0.0
176
     1
 90
        0
176
     1
290
     0
176
     1
290
     1
176
     1
290
     1
176
     1
290
     0
176
     1
290
     0
176
     1
290
     0
176
     1
290
     0
176
     1
290
     0
176
     1
290
     0
176
     1
 90
       50
176
     1
 40
0.0
176
     1
 40
1.0
176
     1
 90
        0
176
     1
 62
    18
420
        0
176
     1
 90
       50
176
     1
 90
        3
176
     1
 62
     5
420
      255
176
     1
290
     0
176
     1
 90
       50
176
     1
 90
       50
176
     1
 90
       50
176
     1
290
     0
176
     1
 90
       50
176
     1
 62
   256
176
     0
 40
1.0
176
     0
 90
        2
176
     1
  1
strokes_ogs.tif
176
     1
290
     0
176
     1
 40
1.0
176
     1
 40
1.0
176
     1
  0
VISUALSTYLE
  5
23D
102
{ACAD_REACTORS
330
28
102
}
330
28
100
AcDbVisualStyle
  2
FlatWithEdges
 70
     1
177
     3
291
     1
 70
    58
 90
        2
176
     1
 90
        1
176
     1
 90
        1
176
     1
 90
        2
176
     1
 40
0.6
176
     1
 40
30.0
176
     1
 62
     7
420
 16777215
176
     1
 90
        1
176
     1
 90
        0
176
     1
 62
     7
176
     1
 62
   257
176
     1
 90
        1
176
     1
 90
        1
176
     1
 40
1.0
176
     1
 90
        0
176
     1
 62
   257
176
     1
 40
1.0
176
     1
 90
        1
176
     1
 90
        6
176
     1
 90
        2
176
     1
 62
     7
176
     1
 90
        5
176
     1
 90
        0
176
     1
 90
        0
176
     1
290
     0
176
     1
 90
       13
176
     1
 40
0.0
176
     1
 90
        0
176
     1
290
     0
176
     1
290
     1
176
     1
290
     1
176
     1
290
     0
176
     1
290
     0
176
     1
290
     0
176
     1
290
     0
176
     1
290
     0
176
     1
290
     0
176
     1
 90
       50
176
     1
 40
0.0
176
     1
 40
1.0
176
     1
 90
        0
176
     1
 62
    18
420
        0
176
     1
 90
       50
176
     1
 90
        3
176
     1
 62
     5
420
      255
176
     1
290
     0
176
     1
 90
       50
176
     1
 90
       50
176
     1
 90
       50
176
     1
290
     0
176
     1
 90
       50
176
     1
 62
   256
176
     0
 40
1.0
176
     0
 90
        2
176
     1
  1
strokes_ogs.tif
176
     1
290
     0
176
     1
 40
1.0
176
     1
 40
1.0
176
     1
  0
VISUALSTYLE
  5
23E
102
{ACAD_REACTORS
330
28
102
}
330
28
100
AcDbVisualStyle
  2
Gouraud
 70
     2
177
     3
291
     1
 70
    58
 90
        2
176
     1
 90
        2
176
     1
 90
        1
176
     1
 90
        2
176
     1
 40
0.6
176
     1
 40
30.0
176
     1
 62
     7
420
 16777215
176
     1
 90
        0
176
     1
 90
        0
176
     1
 62
     7
176
     1
 62
   257
176
     1
 90
        1
176
     1
 90
        1
176
     1
 40
1.0
176
     1
 90
        0
176
     1
 62
     7
176
     1
 40
1.0
176
     1
 90
        1
176
     1
 90
        6
176
     1
 90
        2
176
     1
 62
     7
176
     1
 90
        5
176
     1
 90
        0
176
     1
 90
        0
176
     1
290
     0
176
     1
 90
       13
176
     1
 40
0.0
176
     1
 90
        0
176
     1
290
     0
176
     1
290
     1
176
     1
290
     1
176
     1
290
     0
176
     1
290
     0
176
     1
290
     0
176
     1
290
     0
176
     1
290
     0
176
     1
290
     0
176
     1
 90
       50
176
     1
 40
0.0
176
     1
 40
1.0
176
     1
 90
        0
176
     1
 62
    18
420
        0
176
     1
 90
       50
176
     1
 90
        3
176
     1
 62
     5
420
      255
176
     1
290
     0
176
     1
 90
       50
176
     1
 90
       50
176
     1
 90
       50
176
     1
290
     0
176
     1
 90
       50
176
     1
 62
   256
176
     0
 40
1.0
176
     0
 90
        2
176
     1
  1
strokes_ogs.tif
176
     1
290
     0
176
     1
 40
1.0
176
     1
 40
1.0
176
     1
  0
VISUALSTYLE
  5
23F
102
{ACAD_REACTORS
330
28
102
}
330
28
100
AcDbVisualStyle
  2
GouraudWithEdges
 70
     3
177
     3
291
     1
 70
    58
 90
        2
176
     1
 90
        2
176
     1
 90
        1
176
     1
 90
        2
176
     1
 40
0.6
176
     1
 40
30.0
176
     1
 62
     7
420
 16777215
176
     1
 90
        1
176
     1
 90
        0
176
     1
 62
     7
176
     1
 62
   257
176
     1
 90
        1
176
     1
 90
        1
176
     1
 40
1.0
176
     1
 90
        0
176
     1
 62
   257
176
     1
 40
1.0
176
     1
 90
        1
176
     1
 90
        6
176
     1
 90
        2
176
     1
 62
     7
176
     1
 90
        5
176
     1
 90
        0
176
     1
 90
        0
176
     1
290
     0
176
     1
 90
       13
176
     1
 40
0.0
176
     1
 90
        0
176
     1
290
     0
176
     1
290
     1
176
     1
290
     1
176
     1
290
     0
176
     1
290
     0
176
     1
290
     0
176
     1
290
     0
176
     1
290
     0
176
     1
290
     0
176
     1
 90
       50
176
     1
 40
0.0
176
     1
 40
1.0
176
     1
 90
        0
176
     1
 62
    18
420
        0
176
     1
 90
       50
176
     1
 90
        3
176
     1
 62
     5
420
      255
176
     1
290
     0
176
     1
 90
       50
176
     1
 90
       50
176
     1
 90
       50
176
     1
290
     0
176
     1
 90
       50
176
     1
 62
   256
176
     0
 40
1.0
176
     0
 90
        2
176
     1
  1
strokes_ogs.tif
176
     1
290
     0
176
     1
 40
1.0
176
     1
 40
1.0
176
     1
  0
VISUALSTYLE
  5
241
102
{ACAD_REACTORS
330
28
102
}
330
28
100
AcDbVisualStyle
  2
Hidden
 70
     6
177
     3
291
     0
 70
    58
 90
        1
176
     1
 90
        2
176
     1
 90
        2
176
     1
 90
        0
176
     1
 40
0.6
176
     1
 40
30.0
176
     1
 62
     7
420
 16777215
176
     1
 90
        2
176
     1
 90
        2
176
     1
 62
     7
176
     1
 62
   257
176
     1
 90
        2
176
     1
 90
        1
176
     1
 40
40.0
176
     1
 90
        0
176
     1
 62
   257
176
     1
 40
1.0
176
     1
 90
        1
176
     1
 90
        6
176
     1
 90
        2
176
     1
 62
     7
176
     1
 90
        3
176
     1
 90
        0
176
     1
 90
        0
176
     1
290
     0
176
     1
 90
        1
176
     1
 40
0.0
176
     1
 90
        0
176
     1
290
     0
176
     1
290
     1
176
     1
290
     1
176
     1
290
     0
176
     1
290
     0
176
     1
290
     0
176
     1
290
     0
176
     1
290
     0
176
     1
290
     0
176
     1
 90
       50
176
     1
 40
0.0
176
     1
 40
1.0
176
     1
 90
        0
176
     1
 62
    18
420
        0
176
     1
 90
       50
176
     1
 90
        3
176
     1
 62
     5
420
      255
176
     1
290
     0
176
     1
 90
       50
176
     1
 90
       50
176
     1
 90
       50
176
     1
290
     0
176
     1
 90
       50
176
     1
 62
   256
176
     0
 40
1.0
176
     0
 90
        2
176
     1
  1
strokes_ogs.tif
176
     1
290
     0
176
     1
 40
1.0
176
     1
 40
1.0
176
     1
  0
VISUALSTYLE
  5
24E
102
{ACAD_REACTORS
330
28
102
}
330
28
100
AcDbVisualStyle
  2
JitterOff
 70
    20
177
     3
291
     1
 70
    58
 90
        2
176
     0
 90
        2
176
     0
 90
        0
176
     0
 90
        0
176
     0
 40
0.6
176
     0
 40
30.0
176
     0
 62
     7
420
 16777215
176
     0
 90
        1
176
     0
 90
        4
176
     0
 62
     7
176
     0
 62
   257
176
     0
 90
        1
176
     0
 90
        1
176
     0
 40
1.0
176
     0
 90
       10
176
     2
 62
     7
176
     0
 40
1.0
176
     0
 90
        1
176
     0
 90
        6
176
     0
 90
        2
176
     0
 62
     7
176
     0
 90
        5
176
     0
 90
        0
176
     0
 90
        0
176
     0
290
     0
176
     0
 90
        1
176
     0
 40
0.0
176
     0
 90
        0
176
     0
290
     0
176
     0
290
     1
176
     0
290
     1
176
     0
290
     0
176
     0
290
     0
176
     0
290
     0
176
     0
290
     0
176
     0
290
     0
176
     0
290
     0
176
     0
 90
       50
176
     0
 40
0.0
176
     0
 40
1.0
176
     0
 90
        0
176
     0
 62
    18
420
        0
176
     0
 90
       50
176
     0
 90
        3
176
     0
 62
     5
420
      255
176
     0
290
     0
176
     0
 90
       50
176
     0
 90
       50
176
     0
 90
       50
176
     0
290
     0
176
     0
 90
       50
176
     0
 62
   256
176
     0
 40
1.0
176
     0
 90
        2
176
     0
  1
strokes_ogs.tif
176
     0
290
     0
176
     0
 40
1.0
176
     0
 40
1.0
176
     0
  0
VISUALSTYLE
  5
246
102
{ACAD_REACTORS
330
28
102
}
330
28
100
AcDbVisualStyle
  2
Linepattern
 70
    14
177
     3
291
     1
 70
    58
 90
        2
176
     1
 90
        2
176
     1
 90
        0
176
     1
 90
        0
176
     1
 40
0.6
176
     1
 40
30.0
176
     1
 62
     7
420
 16777215
176
     1
 90
        1
176
     1
 90
        4
176
     1
 62
     7
176
     1
 62
   257
176
     1
 90
        7
176
     1
 90
        7
176
     1
 40
1.0
176
     1
 90
        8
176
     1
 62
     7
176
     1
 40
1.0
176
     1
 90
        1
176
     1
 90
        6
176
     1
 90
        2
176
     1
 62
     7
176
     1
 90
        5
176
     1
 90
        0
176
     1
 90
        0
176
     1
290
     0
176
     1
 90
        1
176
     1
 40
0.0
176
     1
 90
        0
176
     1
290
     0
176
     1
290
     1
176
     1
290
     1
176
     1
290
     0
176
     1
290
     0
176
     1
290
     0
176
     1
290
     0
176
     1
290
     0
176
     1
290
     0
176
     1
 90
       50
176
     1
 40
0.0
176
     1
 40
1.0
176
     1
 90
        0
176
     1
 62
    18
420
        0
176
     1
 90
       50
176
     1
 90
        3
176
     1
 62
     5
420
      255
176
     1
290
     0
176
     1
 90
       50
176
     1
 90
       50
176
     1
 90
       50
176
     1
290
     0
176
     1
 90
       50
176
     1
 62
   256
176
     0
 40
1.0
176
     0
 90
        2
176
     1
  1
strokes_ogs.tif
176
     1
290
     0
176
     1
 40
1.0
176
     1
 40
1.0
176
     1
  0
VISUALSTYLE
  5
24F
102
{ACAD_REACTORS
330
28
102
}
330
28
100
AcDbVisualStyle
  2
OverhangOff
 70
    21
177
     3
291
     1
 70
    58
 90
        2
176
     0
 90
        2
176
     0
 90
        0
176
     0
 90
        0
176
     0
 40
0.6
176
     0
 40
30.0
176
     0
 62
     7
420
 16777215
176
     0
 90
        1
176
     0
 90
        4
176
     0
 62
     7
176
     0
 62
   257
176
     0
 90
        1
176
     0
 90
        1
176
     0
 40
1.0
176
     0
 90
        9
176
     2
 62
     7
176
     0
 40
1.0
176
     0
 90
        1
176
     0
 90
        6
176
     0
 90
        2
176
     0
 62
     7
176
     0
 90
        5
176
     0
 90
        0
176
     0
 90
        0
176
     0
290
     0
176
     0
 90
        1
176
     0
 40
0.0
176
     0
 90
        0
176
     0
290
     0
176
     0
290
     1
176
     0
290
     1
176
     0
290
     0
176
     0
290
     0
176
     0
290
     0
176
     0
290
     0
176
     0
290
     0
176
     0
290
     0
176
     0
 90
       50
176
     0
 40
0.0
176
     0
 40
1.0
176
     0
 90
        0
176
     0
 62
    18
420
        0
176
     0
 90
       50
176
     0
 90
        3
176
     0
 62
     5
420
      255
176
     0
290
     0
176
     0
 90
       50
176
     0
 90
       50
176
     0
 90
       50
176
     0
290
     0
176
     0
 90
       50
176
     0
 62
   256
176
     0
 40
1.0
176
     0
 90
        2
176
     0
  1
strokes_ogs.tif
176
     0
290
     0
176
     0
 40
1.0
176
     0
 40
1.0
176
     0
  0
VISUALSTYLE
  5
55
102
{ACAD_REACTORS
330
28
102
}
330
28
100
AcDbVisualStyle
  2
Realistic
 70
     8
177
     3
291
     0
 70
    58
 90
        2
176
     1
 90
        2
176
     1
 90
        0
176
     1
 90
        2
176
     1
 40
0.6
176
     1
 40
30.0
176
     1
 62
     7
420
 16777215
176
     1
 90
        0
176
     1
 90
        0
176
     1
 62
     7
176
     1
 62
   257
176
     1
 90
        1
176
     1
 90
        1
176
     1
 40
1.0
176
     1
 90
        8
176
     1
 62
   257
176
     1
 40
1.0
176
     1
 90
        1
176
     1
 90
        6
176
     1
 90
        2
176
     1
 62
     7
176
     1
 90
        3
176
     1
 90
        0
176
     1
 90
        0
176
     1
290
     0
176
     1
 90
       13
176
     1
 40
0.0
176
     1
 90
        0
176
     1
290
     0
176
     1
290
     1
176
     1
290
     1
176
     1
290
     0
176
     1
290
     0
176
     1
290
     0
176
     1
290
     0
176
     1
290
     0
176
     1
290
     0
176
     1
 90
       50
176
     1
 40
0.0
176
     1
 40
1.0
176
     1
 90
        0
176
     1
 62
    18
420
        0
176
     1
 90
       50
176
     1
 90
        3
176
     1
 62
     5
420
      255
176
     1
290
     0
176
     1
 90
       50
176
     1
 90
       50
176
     1
 90
       50
176
     1
290
     0
176
     1
 90
       50
176
     1
 62
   256
176
     0
 40
1.0
176
     0
 90
        2
176
     1
  1
strokes_ogs.tif
176
     1
290
     0
176
     1
 40
1.0
176
     1
 40
1.0
176
     1
  0
VISUALSTYLE
  5
24D
102
{ACAD_REACTORS
330
28
102
}
330
28
100
AcDbVisualStyle
  2
Shaded
 70
    27
177
     3
291
     0
 70
    58
 90
        2
176
     1
 90
        2
176
     1
 90
        1
176
     1
 90
        2
176
     1
 40
0.6
176
     1
 40
30.0
176
     1
 62
     7
420
 16777215
176
     1
 90
        0
176
     1
 90
        4
176
     1
 62
     7
176
     1
 62
   257
176
     1
 90
        1
176
     1
 90
        1
176
     1
 40
1.0
176
     1
 90
        8
176
     1
 62
   257
176
     1
 40
1.0
176
     1
 90
        1
176
     1
 90
        6
176
     1
 90
        2
176
     1
 62
     8
420
  7895160
176
     1
 90
        3
176
     1
 90
        0
176
     1
 90
        0
176
     1
290
     0
176
     1
 90
        5
176
     1
 40
0.0
176
     1
 90
        0
176
     1
290
     0
176
     1
290
     1
176
     1
290
     1
176
     1
290
     0
176
     1
290
     0
176
     1
290
     0
176
     1
290
     0
176
     1
290
     0
176
     1
290
     0
176
     1
 90
       50
176
     1
 40
0.0
176
     1
 40
1.0
176
     1
 90
        0
176
     1
 62
    18
420
        0
176
     1
 90
       50
176
     1
 90
        3
176
     1
 62
     5
420
      255
176
     1
290
     0
176
     1
 90
       50
176
     1
 90
       50
176
     1
 90
       50
176
     1
290
     0
176
     1
 90
       50
176
     1
 62
   256
176
     0
 40
1.0
176
     0
 90
        2
176
     1
  1
strokes_ogs.tif
176
     1
290
     0
176
     1
 40
1.0
176
     1
 40
1.0
176
     1
  0
VISUALSTYLE
  5
24C
102
{ACAD_REACTORS
330
28
102
}
330
28
100
AcDbVisualStyle
  2
Shaded with edges
 70
    26
177
     3
291
     0
 70
    58
 90
        2
176
     1
 90
        2
176
     1
 90
        1
176
     1
 90
        2
176
     1
 40
0.6
176
     1
 40
30.0
176
     1
 62
     7
420
 16777215
176
     1
 90
        1
176
     1
 90
        2
176
     1
 62
     7
176
     1
 62
   257
176
     1
 90
        2
176
     1
 90
        1
176
     1
 40
1.0
176
     1
 90
        8
176
     1
 62
   257
176
     1
 40
1.0
176
     1
 90
        1
176
     1
 90
        6
176
     1
 90
        2
176
     1
 62
     7
176
     1
 90
        3
176
     1
 90
        0
176
     1
 90
        0
176
     1
290
     0
176
     1
 90
        5
176
     1
 40
0.0
176
     1
 90
        0
176
     1
290
     0
176
     1
290
     1
176
     1
290
     1
176
     1
290
     0
176
     1
290
     0
176
     1
290
     0
176
     1
290
     0
176
     1
290
     0
176
     1
290
     0
176
     1
 90
       50
176
     1
 40
0.0
176
     1
 40
1.0
176
     1
 90
        0
176
     1
 62
    18
420
        0
176
     1
 90
       50
176
     1
 90
        3
176
     1
 62
     5
420
      255
176
     1
290
     0
176
     1
 90
       50
176
     1
 90
       50
176
     1
 90
       50
176
     1
290
     0
176
     1
 90
       50
176
     1
 62
   256
176
     0
 40
1.0
176
     0
 90
        2
176
     1
  1
strokes_ogs.tif
176
     1
290
     0
176
     1
 40
1.0
176
     1
 40
1.0
176
     1
  0
VISUALSTYLE
  5
249
102
{ACAD_REACTORS
330
28
102
}
330
28
100
AcDbVisualStyle
  2
Shades of Gray
 70
    23
177
     3
291
     0
 70
    58
 90
        2
176
     1
 90
        2
176
     1
 90
        3
176
     1
 90
        0
176
     1
 40
0.6
176
     1
 40
30.0
176
     1
 62
     7
420
 16777215
176
     1
 90
        2
176
     1
 90
        2
176
     1
 62
     7
176
     1
 62
     7
176
     1
 90
        1
176
     1
 90
        1
176
     1
 40
40.0
176
     1
 90
        8
176
     1
 62
     7
176
     1
 40
1.0
176
     1
 90
        1
176
     1
 90
        6
176
     1
 90
        2
176
     1
 62
     7
176
     1
 90
        3
176
     1
 90
        0
176
     1
 90
        0
176
     1
290
     0
176
     1
 90
        1
176
     1
 40
0.0
176
     1
 90
        0
176
     1
290
     0
176
     1
290
     1
176
     1
290
     1
176
     1
290
     0
176
     1
290
     0
176
     1
290
     0
176
     1
290
     0
176
     1
290
     0
176
     1
290
     0
176
     1
 90
       50
176
     1
 40
0.0
176
     1
 40
1.0
176
     1
 90
        0
176
     1
 62
    18
420
        0
176
     1
 90
       50
176
     1
 90
        3
176
     1
 62
     5
420
      255
176
     1
290
     0
176
     1
 90
       50
176
     1
 90
       50
176
     1
 90
       50
176
     1
290
     0
176
     1
 90
       50
176
     1
 62
   256
176
     0
 40
1.0
176
     0
 90
        2
176
     1
  1
strokes_ogs.tif
176
     1
290
     0
176
     1
 40
1.0
176
     1
 40
1.0
176
     1
  0
VISUALSTYLE
  5
24A
102
{ACAD_REACTORS
330
28
102
}
330
28
100
AcDbVisualStyle
  2
Sketchy
 70
    24
177
     3
291
     0
 70
    58
 90
        1
176
     1
 90
        2
176
     1
 90
        2
176
     1
 90
        0
176
     1
 40
0.6
176
     1
 40
30.0
176
     1
 62
     7
420
 16777215
176
     1
 90
        2
176
     1
 90
        2
176
     1
 62
     7
176
     1
 62
     7
176
     1
 90
        1
176
     1
 90
        1
176
     1
 40
40.0
176
     1
 90
       11
176
     1
 62
     7
176
     1
 40
1.0
176
     1
 90
        1
176
     1
 90
        6
176
     1
 90
        2
176
     1
 62
     7
176
     1
 90
        6
176
     1
 90
        0
176
     1
 90
        0
176
     1
290
     0
176
     1
 90
        1
176
     1
 40
0.0
176
     1
 90
        0
176
     1
290
     0
176
     1
290
     1
176
     1
290
     1
176
     1
290
     0
176
     1
290
     0
176
     1
290
     0
176
     1
290
     0
176
     1
290
     0
176
     1
290
     0
176
     1
 90
       50
176
     1
 40
0.0
176
     1
 40
1.0
176
     1
 90
        0
176
     1
 62
    18
420
        0
176
     1
 90
       50
176
     1
 90
        3
176
     1
 62
     5
420
      255
176
     1
290
     0
176
     1
 90
       50
176
     1
 90
       50
176
     1
 90
       50
176
     1
290
     0
176
     1
 90
       50
176
     1
 62
   256
176
     0
 40
1.0
176
     0
 90
        2
176
     1
  1
strokes_ogs.tif
176
     1
290
     0
176
     1
 40
1.0
176
     1
 40
1.0
176
     1
  0
VISUALSTYLE
  5
245
102
{ACAD_REACTORS
330
28
102
}
330
28
100
AcDbVisualStyle
  2
Thicken
 70
    13
177
     3
291
     1
 70
    58
 90
        2
176
     1
 90
        2
176
     1
 90
        0
176
     1
 90
        0
176
     1
 40
0.6
176
     1
 40
30.0
176
     1
 62
     7
420
 16777215
176
     1
 90
        1
176
     1
 90
        4
176
     1
 62
     7
176
     1
 62
   257
176
     1
 90
        1
176
     1
 90
        1
176
     1
 40
1.0
176
     1
 90
       12
176
     1
 62
     7
176
     1
 40
1.0
176
     1
 90
        1
176
     1
 90
        6
176
     1
 90
        2
176
     1
 62
     7
176
     1
 90
        5
176
     1
 90
        0
176
     1
 90
        0
176
     1
290
     0
176
     1
 90
        1
176
     1
 40
0.0
176
     1
 90
        0
176
     1
290
     0
176
     1
290
     1
176
     1
290
     1
176
     1
290
     0
176
     1
290
     0
176
     1
290
     0
176
     1
290
     0
176
     1
290
     0
176
     1
290
     0
176
     1
 90
       50
176
     1
 40
0.0
176
     1
 40
1.0
176
     1
 90
        0
176
     1
 62
    18
420
        0
176
     1
 90
       50
176
     1
 90
        3
176
     1
 62
     5
420
      255
176
     1
290
     0
176
     1
 90
       50
176
     1
 90
       50
176
     1
 90
       50
176
     1
290
     0
176
     1
 90
       50
176
     1
 62
   256
176
     0
 40
1.0
176
     0
 90
        2
176
     1
  1
strokes_ogs.tif
176
     1
290
     0
176
     1
 40
1.0
176
     1
 40
1.0
176
     1
  0
VISUALSTYLE
  5
56
102
{ACAD_REACTORS
330
28
102
}
330
28
100
AcDbVisualStyle
  2
Wireframe
 70
     5
177
     3
291
     0
 70
    58
 90
        0
176
     1
 90
        2
176
     1
 90
        0
176
     1
 90
        0
176
     1
 40
0.6
176
     1
 40
30.0
176
     1
 62
     7
420
 16777215
176
     1
 90
        1
176
     1
 90
        4
176
     1
 62
     7
176
     1
 62
   257
176
     1
 90
        1
176
     1
 90
        1
176
     1
 40
1.0
176
     1
 90
        0
176
     1
 62
   257
176
     1
 40
1.0
176
     1
 90
        1
176
     1
 90
        6
176
     1
 90
        2
176
     1
 62
     7
176
     1
 90
        3
176
     1
 90
        0
176
     1
 90
        0
176
     1
290
     0
176
     1
 90
        1
176
     1
 40
0.0
176
     1
 90
        0
176
     1
290
     0
176
     1
290
     1
176
     1
290
     1
176
     1
290
     0
176
     1
290
     0
176
     1
290
     0
176
     1
290
     0
176
     1
290
     0
176
     1
290
     0
176
     1
 90
       50
176
     1
 40
0.0
176
     1
 40
1.0
176
     1
 90
        0
176
     1
 62
    18
420
        0
176
     1
 90
       50
176
     1
 90
        3
176
     1
 62
     5
420
      255
176
     1
290
     0
176
     1
 90
       50
176
     1
 90
       50
176
     1
 90
       50
176
     1
290
     0
176
     1
 90
       50
176
     1
 62
   256
176
     0
 40
1.0
176
     0
 90
        2
176
     1
  1
strokes_ogs.tif
176
     1
290
     0
176
     1
 40
1.0
176
     1
 40
1.0
176
     1
  0
VISUALSTYLE
  5
24B
102
{ACAD_REACTORS
330
28
102
}
330
28
100
AcDbVisualStyle
  2
X-Ray
 70
    25
177
     3
291
     0
 70
    58
 90
        2
176
     1
 90
        2
176
     1
 90
        1
176
     1
 90
        1
176
     1
 40
0.5
176
     1
 40
30.0
176
     1
 62
     7
420
 16777215
176
     1
 90
        1
176
     1
 90
        0
176
     1
 62
     7
176
     1
 62
   257
176
     1
 90
        1
176
     1
 90
        1
176
     1
 40
1.0
176
     1
 90
        8
176
     1
 62
     7
176
     1
 40
1.0
176
     1
 90
        1
176
     1
 90
        6
176
     1
 90
        2
176
     1
 62
     7
176
     1
 90
        3
176
     1
 90
        0
176
     1
 90
        0
176
     1
290
     0
176
     1
 90
       13
176
     1
 40
0.0
176
     1
 90
        0
176
     1
290
     0
176
     1
290
     1
176
     1
290
     1
176
     1
290
     0
176
     1
290
     0
176
     1
290
     0
176
     1
290
     0
176
     1
290
     0
176
     1
290
     0
176
     1
 90
       50
176
     1
 40
0.0
176
     1
 40
1.0
176
     1
 90
        0
176
     1
 62
    18
420
        0
176
     1
 90
       50
176
     1
 90
        3
176
     1
 62
     5
420
      255
176
     1
290
     0
176
     1
 90
       50
176
     1
 90
       50
176
     1
 90
       50
176
     1
290
     0
176
     1
 90
       50
176
     1
 62
   256
176
     0
 40
1.0
176
     0
 90
        2
176
     1
  1
strokes_ogs.tif
176
     1
290
     0
176
     1
 40
1.0
176
     1
 40
1.0
176
     1
  0
DICTIONARYVAR
  5
48
102
{ACAD_REACTORS
330
47
102
}
330
47
100
DictionaryVariables
280
     0
  1
1:1
  0
DICTIONARYVAR
  5
49
102
{ACAD_REACTORS
330
47
102
}
330
47
100
DictionaryVariables
280
     0
  1
STANDARD
  0
DICTIONARYVAR
  5
4A
102
{ACAD_REACTORS
330
47
102
}
330
47
100
DictionaryVariables
280
     0
  1
STANDARD
  0
DICTIONARYVAR
  5
4B
102
{ACAD_REACTORS
330
47
102
}
330
47
100
DictionaryVariables
280
     0
  1
Imperial24
  0
DICTIONARYVAR
  5
4C
102
{ACAD_REACTORS
330
47
102
}
330
47
100
DictionaryVariables
280
     0
  1
Imperial24
  0
DICTIONARYVAR
  5
4D
102
{ACAD_REACTORS
330
47
102
}
330
47
100
DictionaryVariables
280
     0
  1
1
  0
DICTIONARYVAR
  5
4E
102
{ACAD_REACTORS
330
47
102
}
330
47
100
DictionaryVariables
280
     0
  1
15
  0
DICTIONARYVAR
  5
4F
102
{ACAD_REACTORS
330
47
102
}
330
47
100
DictionaryVariables
280
     0
  1
0
  0
DICTIONARYVAR
  5
50
102
{ACAD_REACTORS
330
47
102
}
330
47
100
DictionaryVariables
280
     0
  1
0
  0
DICTIONARY
  5
13
330
11
100
AcDbDictionary
280
     1
281
     1
  0
DICTIONARY
  5
3C
330
3B
100
AcDbDictionary
280
     1
281
     1
  3
BUMPTILE
360
3D
  3
DIFFUSETILE
360
3E
  3
OPACITYTILE
360
3F
  3
REFLECTIONTILE
360
40
  3
REFRACTIONTILE
360
41
  3
SPECULARTILE
360
42
  0
DICTIONARY
  5
34
330
33
100
AcDbDictionary
280
     1
281
     1
  3
BUMPTILE
360
35
  3
DIFFUSETILE
360
36
  3
OPACITYTILE
360
37
  3
REFLECTIONTILE
360
38
  3
REFRACTIONTILE
360
39
  3
SPECULARTILE
360
3A
  0
DICTIONARY
  5
54
330
53
100
AcDbDictionary
280
     1
281
     1
  3
ACAD_ROUNDTRIP_2008_TABLESTYLE_CELLSTYLEMAP
360
25B
  0
XRECORD
  5
3D
102
{ACAD_REACTORS
330
3C
102
}
330
3C
100
AcDbXrecord
280
     1
270
     1
271
     1
  0
XRECORD
  5
3E
102
{ACAD_REACTORS
330
3C
102
}
330
3C
100
AcDbXrecord
280
     1
270
     1
271
     1
  0
XRECORD
  5
3F
102
{ACAD_REACTORS
330
3C
102
}
330
3C
100
AcDbXrecord
280
     1
270
     1
271
     1
  0
XRECORD
  5
40
102
{ACAD_REACTORS
330
3C
102
}
330
3C
100
AcDbXrecord
280
     1
270
     1
271
     1
  0
XRECORD
  5
41
102
{ACAD_REACTORS
330
3C
102
}
330
3C
100
AcDbXrecord
280
     1
270
     1
271
     1
  0
XRECORD
  5
42
102
{ACAD_REACTORS
330
3C
102
}
330
3C
100
AcDbXrecord
280
     1
270
     1
271
     1
  0
XRECORD
  5
35
102
{ACAD_REACTORS
330
34
102
}
330
34
100
AcDbXrecord
280
     1
270
     1
271
     1
  0
XRECORD
  5
36
102
{ACAD_REACTORS
330
34
102
}
330
34
100
AcDbXrecord
280
     1
270
     1
271
     1
  0
XRECORD
  5
37
102
{ACAD_REACTORS
330
34
102
}
330
34
100
AcDbXrecord
280
     1
270
     1
271
     1
  0
XRECORD
  5
38
102
{ACAD_REACTORS
330
34
102
}
330
34
100
AcDbXrecord
280
     1
270
     1
271
     1
  0
XRECORD
  5
39
102
{ACAD_REACTORS
330
34
102
}
330
34
100
AcDbXrecord
280
     1
270
     1
271
     1
  0
XRECORD
  5
3A
102
{ACAD_REACTORS
330
34
102
}
330
34
100
AcDbXrecord
280
     1
270
     1
271
     1
  0
CELLSTYLEMAP
  5
25B
102
{ACAD_REACTORS
330
54
102
}
330
54
100
AcDbCellStyleMap
 90
        3
300
CELLSTYLE
  1
TABLEFORMAT_BEGIN
 90
        5
170
     1
 91
        0
 92
    32768
 62
   257
 93
        1
300
CONTENTFORMAT
  1
CONTENTFORMAT_BEGIN
 90
        0
 91
        0
 92
      512
 93
        0
300

 40
0.0
140
1.0
 94
        5
 62
     0
340
1E
144
0.25
309
CONTENTFORMAT_END
171
     0
 94
        0
309
TABLEFORMAT_END
  1
CELLSTYLE_BEGIN
 90
        1
 91
        1
300
_TITLE
309
CELLSTYLE_END
300
CELLSTYLE
  1
TABLEFORMAT_BEGIN
 90
        5
170
     1
 91
        0
 92
        0
 62
   257
 93
        1
300
CONTENTFORMAT
  1
CONTENTFORMAT_BEGIN
 90
        0
 91
        0
 92
      512
 93
        0
300

 40
0.0
140
1.0
 94
        5
 62
     0
340
1E
144
0.18
309
CONTENTFORMAT_END
171
     0
 94
        0
309
TABLEFORMAT_END
  1
CELLSTYLE_BEGIN
 90
        2
 91
        1
300
_HEADER
309
CELLSTYLE_END
300
CELLSTYLE
  1
TABLEFORMAT_BEGIN
 90
        5
170
     1
 91
        0
 92
        0
 62
   257
 93
        1
300
CONTENTFORMAT
  1
CONTENTFORMAT_BEGIN
 90
        0
 91
        0
 92
      512
 93
        0
300

 40
0.0
140
1.0
 94
        2
 62
     0
340
1E
144
0.18
309
CONTENTFORMAT_END
171
     0
 94
        0
309
TABLEFORMAT_END
  1
CELLSTYLE_BEGIN
 90
        3
 91
        2
300
_DATA
309
CELLSTYLE_END
  0
ENDSEC
  0
SECTION
  2
ACDSDATA
 70
     2
 71
     8
  0
ACDSSCHEMA
 90
        0
  1
AcDb_Thumbnail_Schema
  2
AcDbDs::ID
280
    10
 91
        8
  2
Thumbnail_Data
280
    15
 91
        0
101
ACDSRECORD
 95
        0
 90
        1
  2
AcDbDs::TreatedAsObjectData
280
     1
291
     1
101
ACDSRECORD
 95
        0
 90
        2
  2
AcDbDs::Legacy
280
     1
291
     1
101
ACDSRECORD
  1
AcDbDs::ID
 90
        3
  2
AcDs:Indexable
280
     1
291
     1
101
ACDSRECORD
  1
AcDbDs::ID
 90
        4
  2
AcDbDs::HandleAttribute
280
     7
282
     1
  0
ACDSSCHEMA
 90
        1
  1
AcDbDs::TreatedAsObjectDataSchema
  2
AcDbDs::TreatedAsObjectData
280
     1
 91
        0
  0
ACDSSCHEMA
 90
        2
  1
AcDbDs::LegacySchema
  2
AcDbDs::Legacy
280
     1
 91
        0
  0
ACDSSCHEMA
 90
        3
  1
AcDbDs::IndexedPropertySchema
  2
AcDs:Indexable
280
     1
 91
        0
  0
ACDSSCHEMA
 90
        4
  1
AcDbDs::HandleAttributeSchema
  2
AcDbDs::HandleAttribute
280
     7
 91
        1
284
     1
  0
ACDSRECORD
 90
        0
  2
AcDbDs::ID
280
    10
320
11
  2
Thumbnail_Data
280
    15
 94
     3279
310
89504E470D0A1A0A0000000D49484452000001000000007C0803000000B13B9E5A00000300504C5445212830000000C8C8C80000000000000000000000000000000000000000000000000000330000660000990000CC0000FF0033000033330033660033990033CC0033FF0066000066330066660066990066CC0066FF0099
310
000099330099660099990099CC0099FF00CC0000CC3300CC6600CC9900CCCC00CCFF00FF0000FF3300FF6600FF9900FFCC00FFFF3300003300333300663300993300CC3300FF3333003333333333663333993333CC3333FF3366003366333366663366993366CC3366FF3399003399333399663399993399CC3399FF33CC00
310
33CC3333CC6633CC9933CCCC33CCFF33FF0033FF3333FF6633FF9933FFCC33FFFF6600006600336600666600996600CC6600FF6633006633336633666633996633CC6633FF6666006666336666666666996666CC6666FF6699006699336699666699996699CC6699FF66CC0066CC3366CC6666CC9966CCCC66CCFF66FF0066
310
FF3366FF6666FF9966FFCC66FFFF9900009900339900669900999900CC9900FF9933009933339933669933999933CC9933FF9966009966339966669966999966CC9966FF9999009999339999669999999999CC9999FF99CC0099CC3399CC6699CC9999CCCC99CCFF99FF0099FF3399FF6699FF9999FFCC99FFFFCC0000CC00
310
33CC0066CC0099CC00CCCC00FFCC3300CC3333CC3366CC3399CC33CCCC33FFCC6600CC6633CC6666CC6699CC66CCCC66FFCC9900CC9933CC9966CC9999CC99CCCC99FFCCCC00CCCC33CCCC66CCCC99CCCCCCCCCCFFCCFF00CCFF33CCFF66CCFF99CCFFCCCCFFFFFF0000FF0033FF0066FF0099FF00CCFF00FFFF3300FF3333
310
FF3366FF3399FF33CCFF33FFFF6600FF6633FF6666FF6699FF66CCFF66FFFF9900FF9933FF9966FF9999FF99CCFF99FFFFCC00FFCC33FFCC66FFCC99FFCCCCFFCCFFFFFF00FFFF33FFFF66FFFF99FFFFCCFFFFFF0000000D0D0D1A1A1A2828283535354343435050505D5D5D6B6B6B787878868686939393A1A1A1AEAEAEBB
310
BBBBC9C9C9D6D6D6E4E4E4F1F1F1FFFFFF000000000000000000000000000000000000000000000000000000000000B21171F60000098A4944415478DAED5D4B7223390EC50D700D6C784BDE8337E813E5465BC56CB4C07EF02599B23C23474C4C504CB1CBB6AC2E57141E1F1E3E04B300BEEBBBBEEBBBBEEBBBBEEBBBBEEB
310
BBBEEBBBBEEB7FB19AAC5AAB7CA68B02E0D657A66B42C05CFF1108A05603E28A00B09A8E95E43FE3025FCB010A33166500B021A0105C4A000A237251D38D0BF2A95D0602B5552C16006495CA202F488850AF0181EE34EB8E9BFDBEFDD5DD80882E004173AB0D80225F8B7EA380484020F384DD0920269752A0A06D3E2407EC
310
AB20202C106DDC9D0082011635B9B8E16862282EA0AFF72681104019101250420584128280D82FCA882C6A58B77580A2BA2FF64A16C0C5BDC1013008D0E4415C6153371072B36DBFBA0070892500680CB06CC025912C526E99FFEA76ABA1AA81020103092514038D82010021D62DDD805BE50CFE91068012802C17361D543D
310
5435B4E478C30C50FDDB41D02CC0E4B014E200000D02B670A000D4EDEC8FA0677960E90A20DAAFB64B5998F0041DF6F202B18747F2CB1E008A7BBF2920992B986750F803EF84C0B03F57973EFB6C8D01AE9208D877F25235B3ED48001E4CC8455D0785029A161A2A75A7D240F772323DBF5207A023A07A80A102E606BB38C0
310
0CC0130DA886F0532841AD9C61B1F216CD32D9478DFA7DEFDD38081BC92420E2C0A0428F06BC870402C3B4EF987D000BFB6E353B10431A2269F87C21D04DF4CCEFA40296F4CC08A8D158E7E5287D3A021E02F46B1782A0C0C043F61E4C01A8BE58D43EDD7E98CD9DAB81A108E77068B170FA7E90A06561F5713910D85F391A
310
6175C2039D02E73DEF6B40608BED288D5BAE3A4059BB0D96206439140CA83D394ED9EF7A18297204483F47A338476AD139C813959511D022385C1FD27E9583C9076818FF7804001907A2509872464B9A15007431A1E0C2C25D8011FFC0FD200080644218F8F00F8F04AE0B3C80A8D93AADD147D6164AB082685DFB2D0180D0
310
80D02E7B07A790D8B73F18D001780E07A916869A5652E4BD245A95015A0354EE1DB160408764A04048F5F1C3E0E777327926FB11B3DCFC8556A540836EF39C0739143865875208A3DA4B67DB7F05C0622491470BCF17978D80900130361F86D9D01AF4CC0823123C6635AC2F6851EB144489ACA480459B886D4A596600029E
310
C6F6311A455336F07861393FBF3407F0BA6AC92662E44093049C015005C0164AA82723E77070D6BF2E8C78AE97A2825E5104D833B61302DC621642FF07DA9480227073FA534F091EAF891F514F5EFFE3EFDC3075613D0072CF5B14B5B9FCBBA1878D7BBBD84E88A7B8FF789CA3A1FC790E813988B2FFC6F903EBF50D868569
310
36748FE051CD28003F02FF63CA8AEBCF32C100C87E8105445ABC71F29FAA379D190904E87701F4051EFEAD3EF06EC2EDE60450043EB58DCE6D24BAC6835FED37D60700E62D113E2C1A7C2E00505B9480C42F33E05F4AE58C1E1E422419E4A538FF4704C84E856D5B7FF780DA8B1FCB05C7399A25116D490D7CEFF70A028836
310
25311D97D5FADC2123110120770548871945555B50FAFE804089B659E9A91E650C801E1124F5F58680FE90D5C69144DEAC83CEBFA6242BCAFFFCDB4A240A84363041210AFC5C0D4B2A403A5EAE9F88EA89008B9E21BCC901644B0C9B7A422406C5CE0920BA6191131028FD61B452357A2A00B7DB6D2500A69D7F1300F0E9D9
310
66F9B10ECE147706A9F4782E86A3FCE5511471A8E1EDB61400704AFDFE3B006E3F0602EC20B00F8F456BD0ED0C7807018CFD8FBA960BFCC878DFB15F7F40AB438C6679C43734ABD37EA5441F32755680E747B4545380FF60BD4B4034C9AC3E466F96A5C6F90411C094123B2EEE047EB8A40DC3A510C8E3B0B719E07E835E38
310
D5E924390E0D60EA0D333C75CA821E2BA502510DBFAD01211B987DB2CCA56EE3F4CCB85EF92945EAC5242DD6189B6ADF771130CAB40808130BE2056032A26708AE905863E2642D004616F02602DE296C1892C038A29F7FF2011A3D5B8DD219E759024565C9C6D09BB98021A0A10C310FD3AA67393E539EF6B223716A92464B
310
75C97AE08F3AD08CE9FD3811628C82EB542AE9547D7783A982B65EDB5F4BD1952A63E5801DA62502BAFF10A99FDA5ED4DD31DAC7111D72ACCA7F355E70D0FC7D085039EC083C4D93390992003940C3DCE3410C1AB5C66B56446F67848EC038F9E19C9F483F30D7B729639E52E13C4ED6D6E08AAD317E93065611B63837551A
310
FC2BAE919C466CAD75E208A4DDEE2FFAF6A2EDE1F74381E900FFF082190033BAD44908A26EF0699A55AF9BBC5F169A1222BEB4BFD40C8AF68B69C4811CBC6E754D08FE50189B0EE08BF15AEB137848D000606DB4DE1AE93DE30FBF7234100835C41302DA112C059505A32738A6ABFCA4F8B3AF1A04025342340D595AC3AC68
310
BFAC781F75CA09F9E179F3C7DFBB130460208027003C2F363528F662AA8CA23FD63EFFE2610F053F1910B5915EBA09199CB3618F991BDC39B3C18179C4FAE9C281B60B23217A313BB2C36D230C0062A60C6082E0388A5FBA55FBF9C51CCD164FA6C9298A682F6687251018D9AF57863E381B54D8E3E26D19A56D47A0740498
310
C7A918F774381A857BDCB72B71D43723302830DDBFC9F76E313F4D8DB7B8798D71CC911230CF59D6A39E42C2289A691B0F700008E04510A870E8C9009D9A05990EF32E4F65D299171A5DB569C054083031E01E23848C985D12D80300DD483B0AFF81004814C833D27BBDC7D663AAE21EF6AB06DA20C08C408E1E1F479C958A
310
FD7CBFC79D537D3AD51EF70C4D029ADD8E982AE9682FEBBBC70152098AB9C79D2417BA1F453871149D2D68BC1100FA95E8090122B1FD8831B1FBFD90BDBF4B5C145D50005A2BDB0040E0516042804DFB8B7C1C8C02C3FD2EAFC4EDEF2CA4102E086AB40B03C47E7572209A3910AD62C9850FB55F87E594063A5D4348B2FF82
310
0C6C0280EC3CE9862705F2ACC8EFDA92417037F3D197B0BFB4631F0950EFA7A91D30BC80624E52287297DDB7144027CCB0698D08DB00E008809D8DD18400EBDB06021805F4C94376694C58506097D552FE74B30D87280B3A0210E3C238EE4D12C24600501A691C00EAD306AE8C286FA14D57A29BBD91F10140B880DA4E4E84
310
3E6C4066B7EEFEEC359B21D07C1AD637DFE04804FC2E12DA5514D87761F304C0F20130D5EFFD117B34296EFF04527B5400850FA40CF81895491F6CBF8A4B216542D83BA30DAFF2246A57821CAF207FF4805EB9BC0C02E107CCD91B01EE8FE5B9C82AAD75FA43D0A14D37702FB02C1E90A7439E0B5EEC61F4F6EF512809C8CB
310
439F25BCD8428520C7C6E08A081483C063820AC3F51008164426D4AE24822731F056880FD4C23521B07F9BC7AE55C03521C0DE02B92802AE0708706D04222FBE3404CC7C6D00E0EDCB38FB32E0F21AF0FF59FF06F57323F277197FDA0000000049454E44AE426082
  0
ENDSEC
  0
EOF
